Oops, an error
Loading. Please wait.

City In A Snow Globe intro tab

version 2
version 2

Intro

Whole song

Interactive

3,120 views 1 this week
1 commentread comment
1 2 3 4 5
1 last vote to show rating
add to favorites
×
Save as Personal and add changes to this tab that will be seen only by you. Learn more ›
×
You can save this tab as Personal to edit and correct it or add notes. All changes will be seen only by you. Learn more »
launch autoscroll
font size
0
reset
how to read this tab
guitar tuner
edit
Autoscroll
slow
fast
+/-
esc
set tempo
stop
Author
before their eyes
jj murphy/nataku
Eb Ab Db Gb Bb eb

UPDATED (3/1/08) 
 - Corrected the intro to sound a bit closer
 - finger tap improved
 - added rhythm verse (@ 1:37)
 - outro needed

|------8-----------8---|
|----10-10---10--10-10-|
|--10------10--10------|
|-0-------0h8----------| 
|----------------------|
|----------------------| repeated


|-----------------|
|-----------------|
|-----------------|
|-----------------|
|-000-000-000-000-|
|-000-000-000-000-| palm muted

|------------------|
|------------------|
|------------------|
|------------------|
|----------------0-|
|-t3-t5-t8-t5-t3-0-| t= tap // 0pen note strumming not shown

|-----------------------------x-|
|-----------------------------x-|
|-----------------------------x-|
|-----------------------------x-|
|-0h3h5/8---8-7-5p0-3p0-------x-|
|-0h3h5/8---8-7-5p0-3p0-------x-|  repeated through verses/chorus

rhythm verse (1:38)
|------------------------|
|------------------------|
|------------------------|
|-000000-3-000-8-8-7-5-0-|
|-000000-3-000-8-8-7-5-0-|
|-000000-3-000-8-8-7-5p0-|
  ......   ...             palm muted open notes


|------------------0-|
|------------------4-|
|------------*8------|
|-000-000-000--------|
|-000-000-000--------|
|-000-000-000--------|

play open notes + 8 twice. then the 4-0 part is the pinch harmonics thing
Suggest correction
Creating personal tab
Creating personal tab
You can edit any tab online and save it as your Personal.

You can edit, replace or remove any tab part or add personal notes – all changes will be seen only by you.

Personal tabs can be accessed anytime from any device, even offline.
Learn more »
Give kudos to tab author, rate the tab!
1 2 3 4 5
comments
print report bad tab
1 comment total.
0 reply
FrenchxKiiss 16 Feb 17, 2008 12:58 PM

The beginning is wrong.

guest
You may want to rate the tab now too:
select rating
Wanna post a correction for this tab? Suggest correction