Oops, an error
Loading. Please wait.

City In A Snow Globe tab

version 1
version 1

Whole song

Interactive

3,711 views 1 this week
3 commentsread comments
1 2 3 4 5
1 last vote to show rating
add to favorites
×
Save as Personal and add changes to this tab that will be seen only by you. Learn more ›
×
You can save this tab as Personal to edit and correct it or add notes. All changes will be seen only by you. Learn more »
launch autoscroll
font size
0
reset
how to read this tab
guitar tuner
edit
Autoscroll
slow
fast
+/-
esc
set tempo
stop
This is a pretty good song from Before Theire Eyes, and it's no soo hard. Any
Doubts or suggestions, let me know. It's 99% accurrate.
Cya & enjoy music.

Drop C#

Clean Gtr 1
D#|-------8------------8-----------8--8--8--8--------|
A#|-----10--10-10--10---10-10--10---10-10-10-10------|
F#|---10---------10--10------10--10------------10----|
C#|--0-----------------------------------------------|
G#|--------------------------------------------------|
C#|--------------------------------------------------|

D#|-------0------------0-----------0--0--0--0--------|
A#|-----10--10-10--10---10-10--10---10-10-10-10------|
F#|---10---------10--10------10--10------------10----|
C#|--0-----------------------------------------------|
G#|--------------------------------------------------|
C#|--------------------------------------------------|
                                                       repeat x4
Dist. Gtr. 1&2
D#|-----------------|
A#|-----------------|
F#|-----------------|
C#|-000-000-000-000-|
G#|-000-000-000-000-|
C#|-000-000-000-000-|
    ... ... ... ...

Gtr. 1&2
D#|--------------------------------------------------------|
A#|--------------------------------------------------------|
F#|--------------------------------------------------------|
C#|--------------------------------------------------------|
G#|--------------------------------------------------------|
C#|-3p0-3p0-3p0-3p0-3p0-3p0-3p0-3p0-5p0-5p0-5p0-5p0--------|

Gtr. 1&2  Gtr.1  Gtr.2
D#|------|------|-----|
A#|------|------|-----|
F#|------|------|-----|
C#|-00000|-3p0--|-----|
G#|-00000|-3p0--|--3*-|
C#|-00000|-3p0--|-----|
    .....

Verse
Gtr. 1&2
D#|--------------------------------------|
A#|--------------------------------------|
F#|--------------------------------------|
C#|-0--1/8-------------------------------|
G#|-0--1/8-------------------------------|
C#|-0--1/8-0h8p7-0h5h7--0h3p0-0----------|

Gtr. 1&2
D#|-----------------------------------------------------|
A#|-----------------------------------------------------|
F#|-----------------------------------------------------|
C#|-0----x----x----xx1/88-------------------------------|
G#|-0----x----x----xx1/88-------------------------------|
C#|-0-3H-x-3H-x-3H-xx1/88-0h8p7-0h5h7--0h3p0-0----------|

Gtr. 1&2
D#|---------------------------------------------------------------|
A#|---------------------------------------------------------------|
F#|---------------------------------------------------------------|
C#|-0-------------------xx/18888888-------------------------------|
G#|-0-------------------xx/18888888-------------------------------|
C#|-0-3H-3H-3H-3H-3H-3H-xx/18888888-0h8p7-0h5h7--0h3p0-0----------|
                            .......

Gtr. 1&2
D#|--------------------------------------------------------------------|
A#|--------------------------------------------------------------------|
F#|--------------------------------------------------------------------|
C#|-0-------------------------------xx1/8888888------------------------|
G#|-0-3H-3H-3H-3H-3H-3H-5h-5h-5h-5h-xx1/8888888------------------------|
C#|-0-------------------------------xx1/8888888-0h8p7-0h5h7--0h3p0-0---|
                                        .......
At the end
  Gtr. 1  Gtr.2
D#|------|-----|
A#|------|-----|
F#|------|-----|
C#|-3p0--|-----|
G#|-3p0--|--3*-|
C#|-3p0--|-----|


Chorus

Gtr. 1&2
D#|--------------------------------------------------------------|
A#|--------------------------------------------------------------|
F#|-------------------------------------101010--------171717-----|
C#|---------------------------------888-x-x-x--101010-x-x-x------|
G#|---------------------------------888-8-8-8--101010-151515-----|
C#|-3p0-3p0-3p0-3p0-3p0-3p0-3p0-3p0-888--------101010------------|  x2

Verse 2

Gtr. 1
D#|-------|
A#|-------|
F#|-------|
C#|-00-00-|
G#|-00-00-|
C#|-00-00-|
    .. ..

  Gtr. 1&2
D#|-------------------------------------------|
A#|-------------------------------------------|
F#|------------5---5--------------------------|
C#|-0-00000000-x-0-x-0/8888-------------------|
G#|-0-00000000-3-0-3-0/8888-------------------|
C#|-0-00000000---0---0/8888p0-7777p0----------|
      ........   .   .......  ....

At the end

Gtr. 1&2
D#|----------------------------------------|
A#|----------------------------------------|
F#|----------------------------------------| All this Palm Muted
C#|----------------------------------------|
G#|----------------------------------------|
C#|-3p0-3p0-3p0-3p0-3p0-3p0-3p0-3p0--------|
    ... ... ... ... ... ... ... ...

Chorus 2


Gtr. 1&2
D#|--------------------------------------------------------------|
A#|--------------------------------------------------------------|
F#|-------------------------------------101010--------171717-----|
C#|---------------------------------888-x-x-x--101010-x-x-x------|
G#|---------------------------------888-8-8-8--101010-151515-----|
C#|-3p0-3p0-3p0-3p0-3p0-3p0-3p0-3p0-888--------101010------------|  x2


Breakdown


Gtr. 1&2

D#|-------------------------------------|
A#|-------------------------------------|
F#|-------------------------------------|
C#|-00-00-00-00---00-00-00-00-00--------|
G#|-00-00-00-00---00-00-00-00-00----3*b-|
C#|-00-00-00-00---00-00-00-00-00--------|
    .. .. .. ..   .. .. .. .. ..


Gtr. 1&2

D#|-------------------------------------|
A#|-------------------------------------|
F#|-------------------------------------|
C#|-00-00-00-00---00-00-00-00-00--------|
G#|-00-00-00-00---00-00-00-00-00----3*--|  x2
C#|-00-00-00-00---00-00-00-00-00--------|
    .. .. .. ..   .. .. .. .. ..

Gtr. 1&2

D#|-----------------------------------------------|
A#|------12------12121212----12-----1212121212----|
F#|------15------15151515----15-----1515151515----|
C#|-00-0---00-00----------------------------------|
G#|-00-0---00-00---------00-0--00-00--------------|
C#|-00-0---00-00---------00-0--00-00--------------|
    .. .   .. ..         .. .


Gtr. 1&2

D#|-----------------------------------------------|
A#|------12------12121212----12-----121212--------|
F#|------15------15151515----15-----151515--------|
C#|-00-0---00-00--------------------------12\0----|
G#|-00-0---00-00---------00-0--00-00------12\0----|
C#|-00-0---00-00---------00-0--00-00------12\0----|
    .. .   .. ..         .. .

Chorus 3

Gtr. 1&2
D#|----------------------------------------------|
A#|----------------------------------------------|
F#|---------------------101010--------171717-----|
C#|-1/--------------888-x-x-x--101010-x-x-x------|
G#|-1/--------------888-8-8-8--101010-151515-----|
C#|-1/--------------888--------101010------------|
Do this slowly

Gtr. 1&2
D#|--------------------------------------------------------------|
A#|--------------------------------------------------------------|
F#|-------------------------------------101010--------171717-----|
C#|---------------------------------888-x-x-x--101010-x-x-x------|
G#|---------------------------------888-8-8-8--101010-151515-----|
C#|-3p0-3p0-3p0-3p0-3p0-3p0-3p0-3p0-888--------101010------------|

Outro

Gtr. 1&2

D#|-------------------|
A#|-------------------|
F#|-------------------|
C#|-00-00-000-000-----|
G#|-00-00-000-000-----|
C#|-00-00-000-000-----|


Gtr. 1&2

D#|--------------------------------------------------------------------------------|
A#|--------------------------------------------------------------------------------|
F#|--------------------------------------------------------------------------------|
C#|-00-00-000-000--5H--00-00-000-000--7H--00-00-000-000----------------00-00-000---|
G#|-00-00-000-000--5H--00-00-000-000--7H--00-00-000-000----------------00-00-000---|
C#|-00-00-000-000------00-00-000-000------00-00-000-000--0h8p7p5-0h5p3-00-00-000---|

-----------------------------|
-----------------------------|
-----------------------------|
000--------------------------|
000---------------1/--7H-----|
000-0h8p7p5-0h5p3-1/---------|


Gtr. 1&2

D#|-------------------------------------------------------------------------------|
A#|-------------------------------------------------------------------------------|
F#|-------------------------------------------------------------------------------|
C#|-00-00-00-00-00-00-00------------------------------00-00-000-00----------------|
G#|-00-00-00-00-00-00-00------------------------------00-00-000-00----------------|
C#|-00-00-00-00-00-00-00--3p0-3p0-3p0-3p0-3p0-3p0-3p0-00-00-000-00--0h8p7p5-0h5p3-|

--------------------------|
--111111------------------|
--141414------------------|
0---------00-00-00-00-----|
0---------00-00-00-00-----|
0---------00-00-00-00-----|
Suggest correction
Creating personal tab
Creating personal tab
You can edit any tab online and save it as your Personal.

You can edit, replace or remove any tab part or add personal notes – all changes will be seen only by you.

Personal tabs can be accessed anytime from any device, even offline.
Learn more »
Give kudos to tab author, rate the tab!
1 2 3 4 5
comments
print report bad tab
3 comments total.
0 reply
theFallofLirby 480 Oct 17, 2008 08:22 PM

nice. only thing missing is few triplets in the breakdown.
im going to start tabbing some BTE, ive benn working on Burden of a Day. Check out the songs off their latest cd.

0 reply
theFallofLirby 480 Oct 20, 2008 01:42 PM

sorry bro, three stars for effort. i played with it and lot of parts are wrong. Check my tab for it, and i just posted one for "the nighttime is our time".

0 reply
Joshe_009 51 Mar 21, 2009 11:40 PM

I saw the YoutTube vid. Well done, dude!

guest
You may want to rate the tab now too:
select rating
Wanna post a correction for this tab? Suggest correction