Oops, an error
Loading. Please wait.

Life Was All A Dream tab

version 2
version 2

Whole song

Interactive

1,312 views 1 this week
1 commentread comment
1 2 3 4 5
2 more votes to show rating
add to favorites
×
Save as Personal and add changes to this tab that will be seen only by you. Learn more ›
×
You can save this tab as Personal to edit and correct it or add notes. All changes will be seen only by you. Learn more »
launch autoscroll
font size
0
reset
how to read this tab
guitar tuner
edit
Autoscroll
slow
fast
+/-
esc
set tempo
stop
Tabbed by: Joshua Garcia (joshuag523@aol.com)

Tabs for the song: Life Was All A Dream by Before Their Eyes
Please rate and let me know if you have any corrections, thank you.

Other than some parts for the 2nd guitar, this is about 98% accurate, enjoy!


*Updated on 06/17/13 - Did a complete redo on the tab. Now much more 
accurate and also includes the Interlude.


Tuning: Drop C# (C# G# C# F# A# D#)


Intro
Guitar 1:
D#||--------------------------------------------------|
A#||----10-8----------------------10-8-------6--6--6--|
F#||---------9h10----------------------9h10--7--7--7--|
C#||--0------------0------------0------------0--0--0--|
G#||--0------------0------------0---------------------|
C#||--0------------0------------0---------------------|


Guitar 2:
D#||--------------------------------------------------|
A#||-----------------------------------------6--6--6--|
F#||-----------------------------------------7--7--7--|
C#||--0------------0--7-5-------0--7-5-------0--0--0--|
G#||--0------------0------7h8---0------7h8------------|
C#||--0------------0------------0---------------------|



Guitar 1:
D#||--------------------------------------------------|
A#||----10-8---------10-8---------10-8-------6--6--6--|
F#||---------9h10---------9h10---------9h10--7--7--7--|
C#||--0------------0------------0------------0--0--0--| x2
G#||--0------------0------------0---------------------|
C#||--0------------0------------0---------------------|


Guitar 2:
D#||--------------------------------------------------|
A#||-----------------------------------------6--6--6--|
F#||-----------------------------------------7--7--7--|
C#||--0--7-5-------0--7-5-------0--7-5-------0--0--0--| x2
G#||--0------7h8---0------7h8---0------7h8------------|
C#||--0------------0------------0---------------------|



Verse
Guitar 1:
D#||-----------------------------------------|---------------------------|
A#||--6~----------5~---/---8~------------5~--|--6~----------5~---/---8~--|
F#||--7~----------6~---/---9~------------6~--|--7~----------6~---/---9~--|
C#||--0~----------0~---/---0~------------0~--|--0~----------0~---/---0~--|
G#||-----------------------------------------|---------------------------|
C#||-----------------------------------------|---------------------------|


Guitar 2:
D#||------------------------------------|
A#||------------------------------------|
F#||------------------------------------|
C#||--0---00000---00000---0000-0--0--0--| X4
G#||--0---00000---00000---0000-0--0--0--|
C#||--0---00000---00000---0000-0--0--0--|
      .   .....   .....   .... .  .  .



Pre-Chorus
Guitar 1:
D#||--------------------------------------|
A#||--------------------------------------|
F#||--------------------------------------|
C#||--0--7--7--0--5--5--0--3--3--0--0--0--|
G#||--0--------0--------0--------0--------|
C#||--0--------0--------0--------0--------|


Guitar 2:
D#||--------------------------------------|
A#||--------------------------------------|
F#||--------------------------------------|
C#||--0--------0--------0--------0--------|
G#||--0--8--8--0--7--7--0--5--5--0--3--3--|
C#||--0--------0--------0--------0--------|



Chorus
Guitar 1 (Harmonic):
D#||--13-------13-------13------/15-13-12-13-------13--------------------------|
A#||--------------------------------------------------------13-----------------|
F#||-----14-15----14-15----14-15-------------14-15----14-15----14-15-12--------|
C#||--------------------------------------------------------------------15-14--| x2
G#||---------------------------------------------------------------------------|
C#||---------------------------------------------------------------------------|


D#||-------|
A#||-------|
F#||-------|
C#||--15~--|
G#||-------|
C#||-------|


Guitar 2:
D#||-----------------------------------------------------|
A#||-----------------------------------------------------|
F#||-----------------------------------------------------|
C#||--88-8-88----88-8-88-8888-00-0-00-00--5-5555-10-8-7--|
G#||--88-8-88----88-8-88-8888-00-0-00-00--5-5555-10-8-7--|
C#||--88-8-88----88-8-88-8888-00-0-00-00--5-5555-10-8-7--|


D#||------------------------------------------------------|
A#||------------------------------------------------------|
F#||------------------------------------------------------|
C#||--88-8-88----88-8-88------00-0-00-00--5-5555-8--7--5--|
G#||--88-8-88----88-8-88-xxxx-00-0-00-00--5-5555-8--7--5--|
C#||--88-8-88----88-8-88-xxxx-00-0-00-00--5-5555-8--7--5--|



Interlude
Guitar 1:
D#||--------5-----------5-----------0-----------0------|
A#||----------6-----------6-----------6-----------6----|
F#||------7-----7-----7-----7-----7-----7-----7-----7--|
C#||----7-----------7-----------7-----------7----------|
G#||--5-----------5-----------4-----------4------------|
C#||---------------------------------------------------|


D#||--------0-----------0----------0----------0-----|
A#||----------2~----------2~---------2~---------2~--|
F#||------3-----------3----------2----------2-------|
C#||----3-----------3----------2----------2---------|
G#||--1-----------1----------0----------0-----------|
C#||------------------------------------------------|


D#||--------5-----------5-----------0-----------0------|
A#||----------6-----------6-----------6-----------6----|
F#||------7-----7-----7-----7-----7-----7-----7-----7--|
C#||----7-----------7-----------7-----------7----------|
G#||--5-----------5-----------4-----------4------------|
C#||---------------------------------------------------|


D#||--------0-----------0----------0----------0-----|
A#||----------2~----------2~---------2~---------2~--|
F#||------3-----------3----------2----------2-------|
C#||----3-----------3----------2----------2---------|
G#||--1-----------1----------0----------0-----------|
C#||------------------------------------------------|



Verse
Guitar 1:
D#||------------------------|
A#||--5~---5~---5~---5-5-5--|
F#||--8~---8~---8~---8-8-8--|
C#||------------------------|
G#||------------------------|
C#||------------------------|


Guitar 2:
D#||------------------------|
A#||------------------------|
F#||------------------------|
C#||--0----0----0----0-0-0--|
G#||--0----0----0----0-0-0--|
C#||--0----0----0----0-0-0--|


Guitar 1/2:
D#||-----------------------------------|
A#||-----------------------------------|
F#||-----------------------------------|
C#||--0-7----0-7-7-0-0----7-0---7-0-0--|
G#||--0-6----0-6-6-0-0----6-0---6-0-0--|
C#||--0------0-----0-0------0-----0-0--|


D#||---------------------------------------------------------|
A#||---------------------------------------------------------|
F#||---------------------------------------------------------|
C#||--0-----------0-----------0-0-----------0-----------0-0--|
G#||--0-----------0-----------0-0-----------0-----------0-0--|
C#||--0--0h1h4p1--0--4p1-0h1--0-0--0h1h4p1--0--4p1-0h1--0-0--|



Pre-Chorus
Guitar 1:
D#||--------------------------------------|
A#||--------------------------------------|
F#||--------------------------------------|
C#||--0--7--7--0--5--5--0--3--3--8--7--5--| x2
G#||--0--------0--------0--------8--7--5--|
C#||--0--------0--------0--------8--7--5--|


Guitar 2:
D#||--------------------------------------|
A#||--------------------------------------|
F#||--------------------------------------|
C#||--0--------0--------0--------8--7--5--| x2
G#||--0--8--8--0--7--7--0--5--5--8--7--5--|
C#||--0--------0--------0--------8--7--5--|



Chorus
Guitar 1 (Harmonic):
D#||--13-------13-------13------/15-13-12-13-------13--------------------------|
A#||--------------------------------------------------------13-----------------|
F#||-----14-15----14-15----14-15-------------14-15----14-15----14-15-12--------|
C#||--------------------------------------------------------------------15-14--| x2
G#||---------------------------------------------------------------------------|
C#||---------------------------------------------------------------------------|


D#||-------|
A#||-------|
F#||-------|
C#||--15~--|
G#||-------|
C#||-------|


Guitar 2:
D#||-----------------------------------------------------|
A#||-----------------------------------------------------|
F#||-----------------------------------------------------|
C#||--88-8-88----88-8-88-8888-00-0-00-00--5-5555-10-8-7--|
G#||--88-8-88----88-8-88-8888-00-0-00-00--5-5555-10-8-7--|
C#||--88-8-88----88-8-88-8888-00-0-00-00--5-5555-10-8-7--|


D#||------------------------------------------------------|
A#||------------------------------------------------------|
F#||------------------------------------------------------|
C#||--88-8-88----88-8-88------00-0-00-00--5-5555-8--7--5--|
G#||--88-8-88----88-8-88-xxxx-00-0-00-00--5-5555-8--7--5--|
C#||--88-8-88----88-8-88-xxxx-00-0-00-00--5-5555-8--7--5--|



Pre-Bridge
Guitar 1/2:
D#||-------------------------------------------|
A#||-------------------------------------------|
F#||-------------------------------------------| X2
C#||--0~---------------------------------------|
G#||--0~---------------------------------------|
C#||--0~-------------6-6-6-6-6-6-8-8-8-8b9-9---|


D#||--------------------------------|
A#||--------------------------------|
F#||--------------------------------|
C#||--0------0------0------8-7-5----| X2
G#||--0------0------0------8-7-5----|
C#||--0-0000-0-0000-0-0000-8-7-5----|
        ....   ....   ....


D#||--------------------------------|
A#||--------------------------------|
F#||--------------------------------|
C#||--0------0------0------8-7-5----| X2
G#||--0------0------0------8-7-5----|
C#||--0-0000-0-0000-0-0000-8-7-5----|
        ....   ....   ....


Guitar 1 (Harmonic):
D#||-------------------------------------|
A#||-------------------------------------|
F#||-------------------------------------|
C#||-------------------------------------| x2
G#||--5h6p5~---5h6p5~---5h6p5~---5-5-5~--|
C#||-------------------------------------|



Bridge
Guitar 1 (Harmonic):
D#||----------------------8~--10~---------------------|
A#||--7~-------8~-10~--------------8~------------10~--|
F#||--------------------------------------------------|
C#||--------------------------------------------------| x2
G#||--------------------------------------------------|
C#||--------------------------------------------------|


D#||------|
A#||--7~--|
F#||------|
C#||------|
G#||------|
C#||------|


Guitar 2:
D#||------------------------------------------------------------------|
A#||------------------------------------------------------------------|
F#||------------------------------------------------------------------|
C#||--0000--00--00--10101010--1010--1010--8888--88--88--7777--77--77--|
G#||--0000--00--00--10101010--1010--1010--8888--88--88--7777--77--77--|
C#||--0000--00--00--10101010--1010--1010--8888--88--88--7777--77--77--|


D#||-----------------------------------------------------------------------------------|
A#||-----------------------------------------------------------------------------------|
F#||-----------------------------------------------------------------------------------|
C#||--00-000-000-000-0-1010-101010-101010-101010-10-88-888-888-888-8-77-777-777-77777--|
G#||--00-000-000-000-0-1010-101010-101010-101010-10-88-888-888-888-8-77-777-777-77777--|
C#||--00-000-000-000-0-1010-101010-101010-101010-10-88-888-888-888-8-77-777-777-77777--|



Breakdown
Guitar 1:
D#||-------------------------------------------------|
A#||-------------------------------------------------|
F#||-----7---7777777777777---7---7777777-------------|
C#||--00---0---------------0---0---------0-10101010--|
G#||-------------------------------------0-10101010--|
C#||-------------------------------------0-10101010--|


D#||---------------------------------------------|
A#||---------------------------------------------|
F#||-----7---7777777777777---7---7777777---------|
C#||--00---0---------------0---0---------0-8888--| x2
G#||-------------------------------------0-8888--|
C#||-------------------------------------0-8888--|


Guitar 2:
D#||-------------------------------------------------|
A#||-------------------------------------------------|
F#||-------------------------------------------------|
C#||--00--0----------------0---0---------0-10101010--|
G#||--00--0----------------0---0---------0-10101010--|
C#||--00--0----------------0---0---------0-10101010--|


D#||-----------------------------------------------|
A#||-----------------------------------------------|
F#||-----------------------------------------------| x2
C#||--00-0-----------------0---0---------0-8888----|
G#||--00-0-----------------0---0---------0-8888----|
C#||--00-0-----------------0---0---------0-8888----|


Guitar 3:
D#||-----------------------------------------------------------------------|
A#||-----------------------------------------------------------------------|
F#||-----10---10101010101010101010101010---10---10101010101010-------------|
C#||--00----0----------------------------0----0----------------0-10101010--|
G#||-----------------------------------------------------------0-10101010--|
C#||-----------------------------------------------------------0-10101010--|


D#||-------------------------------------------------------------------|
A#||-------------------------------------------------------------------|
F#||-----10---10101010101010101010101010---10---10101010101010---------|
C#||--00----0----------------------------0----0----------------0-8888--|
G#||-----------------------------------------------------------0-8888--|
C#||-----------------------------------------------------------0-8888--|


Guitar 1 (Harmonic):
D#||----------------------|
A#||--------10-------10---|
F#||--10-10----10-10------|
C#||----------------------|
G#||----------------------|
C#||----------------------|



Chorus
Guitar 1 (Harmonic):
D#||---------------------------------------|
A#||--------10-------10-------10-------10--|
F#||--10-10----10-10----10-10----10-10-----|
C#||---------------------------------------| x4
G#||---------------------------------------|
C#||---------------------------------------|


Guitar 2:
D#||-----------------------------------------------------|
A#||-----------------------------------------------------|
F#||-----------------------------------------------------|
C#||--88-8-88----88-8-88-8888-00-0-00-00--5-5555-10-8-7--|
G#||--88-8-88----88-8-88-8888-00-0-00-00--5-5555-10-8-7--|
C#||--88-8-88----88-8-88-8888-00-0-00-00--5-5555-10-8-7--|


D#||------------------------------------------------------|
A#||------------------------------------------------------|
F#||------------------------------------------------------|
C#||--88-8-88----88-8-88------00-0-00-00--5-5555-8--7--5--|
G#||--88-8-88----88-8-88-xxxx-00-0-00-00--5-5555-8--7--5--|
C#||--88-8-88----88-8-88-xxxx-00-0-00-00--5-5555-8--7--5--|



Outro
Guitar 1 (Harmonic):
D#||----------------------------------------------|
A#||------13--10--11/13-13------13--10--11/13-13--|
F#||----------------------------------------------|
C#||--10--------------------10--------------------| x4
G#||----------------------------------------------|
C#||----------------------------------------------|


Guitar 1:
D#||-------------------------------------------------------|
A#||-------------------------------------------------------|
F#||-------------------------------------------------------|
C#||--8-88888-8888-0-00000-0000-7-77777-77777-7777-10-8-7--|
G#||--8-88888-8888-0-00000-0000-7-77777-77777-7777-10-8-7--|
C#||--8-88888-8888-0-00000-0000-7-77777-77777-7777-10-8-7--|


D#||-------------------------------------------------------|
A#||-------------------------------------------------------|
F#||-------------------------------------------------------|
C#||--8-88888-8888-0-00000-0000-7-77777-77777-7777-10-8-7--|
G#||--8-88888-8888-0-00000-0000-7-77777-77777-7777-10-8-7--|
C#||--8-88888-8888-0-00000-0000-7-77777-77777-7777-10-8-7--|


Guitar 1/2:
D#||------------------------------|
A#||------------------------------|
F#||------------------------------|
C#||--0------0------0-------------| x2
G#||--0------0------0------0-0-0--|
C#||--0-0000-0-0000-0-0000-1-1-1--|
        ....   ....   ....

D#||-------------------------------------|
A#||-------------------------------------|
F#||-------------------------------------|
C#||--1p0------1p0------1p0--------------|
G#||--1p0------1p0------1p0------0-0-0---|
C#||--1p0------1p0------1p0------1-1-1---|





Tablature Legend
----------------
 h   hammer-on
 p   pull-off
 b   bend
 pb  pre-bend
 r   release bend
 ~   hold / vibrato
 .   palm mute
 /   slide up
 \   slide down
 *   pinch harmonic
 '   natural harmonic
 x   mute note
 T   tap

            
            
Suggest correction
Creating personal tab
Creating personal tab
You can edit any tab online and save it as your Personal.

You can edit, replace or remove any tab part or add personal notes – all changes will be seen only by you.

Personal tabs can be accessed anytime from any device, even offline.
Learn more »
Give kudos to tab author, rate the tab!
1 2 3 4 5
comments
print report bad tab
1 comment total.
0 reply
linds4lif 114 Jul 17, 2009 07:29 AM

looks good....

guest
You may want to rate the tab now too:
select rating
Wanna post a correction for this tab? Suggest correction