Oops, an error
Loading. Please wait.

My Match Your Fire tab

1,715 views 1 this week
no commentswrite comment
1 2 3 4 5
x 7
add to favorites
×
Save as Personal and add changes to this tab that will be seen only by you. Learn more ›
×
You can save this tab as Personal to edit and correct it or add notes. All changes will be seen only by you. Learn more »
launch autoscroll
font size
0
reset
how to read this tab
guitar tuner
edit
Autoscroll
slow
fast
+/-
esc
set tempo
stop
Author
Difficulty
Tabbed by: Joshua Garcia (joshuag523@aol.com)

Tabs for the song: My Match, Your Fire by Before Their Eyes
Please rate and let me know if you have any corrections. Thank you.


*Updated on 4/25/2012 - Updated entire tab. Should be very accurate.


Tuning: Standard (E A D G B E)


Intro
Guitar 1:
E||--------0---------0---------0---------0---|
B||--------2---------2---------2---------2---|
G||------------------------------------------| x5
D||------------------------------------------|
A||--4--4------4--4------2--2----------------|
E||--------------------------------2--2------|


Guitar 2:
E||------------------------------------------------------------------|
B||------------------------------------------------------------------|
G||------------------------------------------------------------------| x2
D||------------------------------------------------------------------|
A||-4-4-4-4-4-4-4-4-4-4-4-4-4-4-4-4-2-2-2-2-2-2-2-2------------------|
E||-------------------------------------------------2-2-2-2-2-2-2-2--|
    . . . . . . . . . . . . . . . . . . . . . . . . . . . . . . . .


Guitar 1/2:
E||-----|
B||-----|
G||-----|
D||-----|
A||--4--|
E||-----|



Verse
Guitar 1/2:
E||----------------------------------|
B||----------------------------------|
G||----------------------------------| x2
D||-4-4-4-7-7-7-7-2-2-2-2-2-2-2-2-2--|
A||-4-4-4-7-7-7-7-2-2-2-2-2-2-2-2-2--|
E||-2-2-2-5-5-5-5-0-0-0-0-0-0-0-0-0--|



Pre-Chorus
Guitar 1:
E||----------------------------------------|-----------------------------------------|
B||----------------------------------------|-----------------------------------------|
G||----------------------------------------|-----------------------------------------|
D||----------------------------------------|-----------------------------------------|
A||----------------------------------------|-----------------------------------------|
E||-9-9-9-\-5-5-5-/-7-7-7-7-7-7-7-\-2-2-2--|--9-9-9-\-5-5-5-/-7-7-7-7-7-7-7-\-0-0-0--|


Guitar 1/2:
E||----------------------------------------|-----------------------------------------|
B||----------------------------------------|-----------------------------------------|
G||----------------------------------------|-----------------------------------------|
D||----------------------------------------|-----------------------------------------|
A||----------------------------------------|-----------------------------------------|
E||-9-9-9-\-5-5-5-/-7-7-7-7-7-7-7-\-2-2-2--|--9-9-9-\-5-5-5-/-7-7-7-7-7-7-7-\-0-0-0--|



Chorus
Guitar 1:
E||-----------------------------------|---------------------------------|
B||-----------------------------------|---------------------------------|
G||--6-6-6---------2---2-2-2-2-2-2-2--|--6-6-6---------2----------------|
D||--6-6-6-2-2-----2---2-2-2-2-2-2-2--|--6-6-6-2-2-----2--4-4-----4-4---|
A||--4-4-4-2-2-----0---0-0-0-0-0-0-0--|--4-4-4-2-2-----0--4-4-----4-4---|
E||--------0-0------------------------|--------0-0--------2-2-----2-2---|


E||-----------------------------------|------------------------------------|
B||-----------------------------------|------------------------------------|
G||--6-6-6---------2---2-2-2-2-2-2-2--|------------------------------------|
D||--6-6-6-2-2-----2---2-2-2-2-2-2-2--|-2-2-2-2-2-2-2-2-6-6-6-6-6-6-6-6-7--|
A||--4-4-4-2-2-----0---0-0-0-0-0-0-0--|-2-2-2-2-2-2-2-2-6-6-6-6-6-6-6-6-7--|
E||--------0-0------------------------|-0-0-0-0-0-0-0-0-4-4-4-4-4-4-4-4-5--|


Guitar 2:
E||--12-------------------------------9-------|--12---------------------------------------|
B||-----12------------------------12-----12---|-----12------------------------------------|
G||--------9----11/13---11---9----------------|--------9----11/13---11---8---9----9-9-9---| x2
D||----------9--------------------------------|----------9--------------------------------|
A||-------------------------------------------|-------------------------------------------|
E||-------------------------------------------|-------------------------------------------|


Guitar 1:
E||-----|
B||-----|
G||-----|
D||--4--|
A||--4--|
E||--2--|



Verse
Guitar 1:
E||--------0---------0---------0---------0---|
B||--------2---------2---------2---------2---|
G||------------------------------------------| x2
D||------------------------------------------|
A||--4--4------4--4------2--2----------------|
E||--------------------------------2--2------|


Guitar 2:
E||------------------------------------------------------------------|
B||------------------------------------------------------------------|
G||------------------------------------------------------------------| x2
D||------------------------------------------------------------------|
A||-4-4-4-4-4-4-4-4-4-4-4-4-4-4-4-4-2-2-2-2-2-2-2-2------------------|
E||-------------------------------------------------2-2-2-2-2-2-2-2--|
    . . . . . . . . . . . . . . . . . . . . . . . . . . . . . . . .



Pre-Chorus
Guitar 1/2:
E||----------------------------------------|-----------------------------------------|
B||----------------------------------------|-----------------------------------------|
G||----------------------------------------|-----------------------------------------|
D||----------------------------------------|-----------------------------------------|
A||----------------------------------------|-----------------------------------------|
E||-9-9-9-\-5-5-5-/-7-7-7-7-7-7-7-\-2-2-2--|--9-9-9-\-5-5-5-/-7-7-7-7-7-7-7-\-0-0-0--|



Chorus
Guitar 1:
E||-----------------------------------|---------------------------------|
B||-----------------------------------|---------------------------------|
G||--6-6-6---------2---2-2-2-2-2-2-2--|--6-6-6---------2----------------|
D||--6-6-6-2-2-----2---2-2-2-2-2-2-2--|--6-6-6-2-2-----2--4-4-----4-4---|
A||--4-4-4-2-2-----0---0-0-0-0-0-0-0--|--4-4-4-2-2-----0--4-4-----4-4---|
E||--------0-0------------------------|--------0-0--------2-2-----2-2---|


E||-----------------------------------|------------------------------------|
B||-----------------------------------|------------------------------------|
G||--6-6-6---------2---2-2-2-2-2-2-2--|------------------------------------|
D||--6-6-6-2-2-----2---2-2-2-2-2-2-2--|-2-2-2-2-2-2-2-2-6-6-6-6-6-6-6-6-7--|
A||--4-4-4-2-2-----0---0-0-0-0-0-0-0--|-2-2-2-2-2-2-2-2-6-6-6-6-6-6-6-6-7--|
E||--------0-0------------------------|-0-0-0-0-0-0-0-0-4-4-4-4-4-4-4-4-5--|


Guitar 2:
E||--12-------------------------------9-------|--12---------------------------------------|
B||-----12------------------------12-----12---|-----12------------------------------------|
G||--------9----11/13---11---9----------------|--------9----11/13---11---8---9----9-9-9---| x2
D||----------9--------------------------------|----------9--------------------------------|
A||-------------------------------------------|-------------------------------------------|
E||-------------------------------------------|-------------------------------------------|


Guitar 1:
E||-----|
B||-----|
G||-----|
D||--4--|
A||--4--|
E||--2--|



Bridge
Guitar 2:
E||------------------------------|------------------------------|
B||------------------------------|------------------------------|
G||------------------------------|------------------------------| x2
D||------------------------------|------------------------------|
A||------------------------------|------------------------------|
E||-9-9-----5-9-9-----2---2--00--|-9-9-----5-9-9-----2---2-333--|


Guitar 1:
E||------------------------------------------------|
B||-(12)b14--r12-b14-------------------------------|
G||------------------------------------------------|
D||--------------------------------------------9b--|
A||--------------------------------999911111111----|
E||--------------------999912121212----------------|



Solo
Guitar 1:
E||-----------------------------------------|---------------------------------------------|
B||-------------------------------12--------|-------------------------12--10-9-9---/18\---|
G||-----------------9h11p9--11b13------9-9--|-----------------9h11p9----------------------|
D||--11b--11b--11b--------------------------|--11b--11b--11b------------------------------|
A||-----------------------------------------|---------------------------------------------|
E||-----------------------------------------|---------------------------------------------|


E||----------9-----9-----9-------12b14r12----9----9---|
B||--9h12p9--12b14-12b14-12b14-----------------12-----|
G||---------------------------------------------------|
D||---------------------------------------------------|
A||---------------------------------------------------|
E||---------------------------------------------------|

          t  t  t t  t  t t  t  t t  t  t t  t
E||--1212-14-12-9-16-12-9-14-12-9-16-12-9-14-12-----|
B||-------------------------------------------------|
G||-------------------------------------------------|
D||-------------------------------------------------|
A||-------------------------------------------------|
E||-------------------------------------------------|


E||--121212141414161616191919-19b21---|
B||-----------------------------------|
G||-----------------------------------|
D||-----------------------------------|
A||-----------------------------------|
E||-----------------------------------|


Guitar 2:
E||------------------------------|------------------------------|
B||------------------------------|------------------------------|
G||------------------------------|------------------------------|
D||------------------------------|------------------------------|
A||------------------------------|------------------------------|
E||-9-9-----5-9-9-----2---2--00--|-9-9-----5-9-9-----2---2-333--|


E||------------------------------|------------------------------------|
B||------------------------------|------------------------------------|
G||------------------------------|------------------------------------|
D||------------------------------|------------------------------------|
A||------------------------------|------------------------------------|
E||-9-9-----5-9-9-----2---2--00--|-9-9-----5-9-9-----2-2-2-2h3-3-3-3--|



Chorus
Guitar 1:
E||-----------------------------------|---------------------------------|
B||-----------------------------------|---------------------------------|
G||--6-6-6---------2---2-2-2-2-2-2-2--|--6-6-6---------2----------------| x2
D||--6-6-6-2-2-----2---2-2-2-2-2-2-2--|--6-6-6-2-2-----2--4-4-----4-4---|
A||--4-4-4-2-2-----0---0-0-0-0-0-0-0--|--4-4-4-2-2-----0--4-4-----4-4---|
E||--------0-0------------------------|--------0-0--------2-2-----2-2---|


E||-----------------------------------|---------------------------------|
B||-----------------------------------|---------------------------------|
G||--6-6-6---------2---2-2-2-2-2-2-2--|--6-6-6---------2----------------|
D||--6-6-6-2-2-----2---2-2-2-2-2-2-2--|--6-6-6-2-2-2-2-2--4-4-4-4-4-4---|
A||--4-4-4-2-2-----0---0-0-0-0-0-0-0--|--4-4-4-2-2-2-2-0--4-4-4-4-4-4---|
E||--------0-0------------------------|--------0-0-0-0----2-2-2-2-2-2---|


E||-----------------------------------|------------------------------------|
B||-----------------------------------|------------------------------------|
G||--6-6-6---------2---2-2-2-2-2-2-2--|------------------------------------|
D||--6-6-6-2-2-----2---2-2-2-2-2-2-2--|-2-2-2-2-2-2-2-2-6-6-6-6-6-6-6-6-7--|
A||--4-4-4-2-2-----0---0-0-0-0-0-0-0--|-2-2-2-2-2-2-2-2-6-6-6-6-6-6-6-6-7--|
E||--------0-0------------------------|-0-0-0-0-0-0-0-0-4-4-4-4-4-4-4-4-5--|


Guitar 2:
E||--12-------------------------------9-------|--12---------------------------------------|
B||-----12------------------------12-----12---|-----12------------------------------------|
G||--------9----11/13---11---9----------------|--------9----11/13---11---8---9----9-9-9---| x4
D||----------9--------------------------------|----------9--------------------------------|
A||-------------------------------------------|-------------------------------------------|
E||-------------------------------------------|-------------------------------------------|



Outro
Guitar 2:
E||--0--------2--------0--------4--------0--------2--------0--------4h5---------|
B||-----0--------0--------0--------0--------0--------0--------0---------(0)-----|
G||-----------------------------------------------------------------------------| x2
D||-------2--------2--------2--------2--------2--------2--------2----------(2)--|
A||-----------------------------------------------------------------------------|
E||-----------------------------------------------------------------------------|




Tablature Legend
----------------
 h   hammer-on
 p   pull-off
 b   bend
 pb  pre-bend
 r   release bend
 ~   hold / vibrato
 .   palm mute
 /   slide up
 \   slide down
 *   pinch harmonic
 '   natural harmonic
 x   mute note
 T   tap

            
            
Suggest correction
Creating personal tab
Creating personal tab
You can edit any tab online and save it as your Personal.

You can edit, replace or remove any tab part or add personal notes – all changes will be seen only by you.

Personal tabs can be accessed anytime from any device, even offline.
Learn more »
comments
print report bad tab
guest
You may want to rate the tab now too:
select rating
Wanna post a correction for this tab? Suggest correction