Oops, an error
Loading. Please wait.

Three Words Tab

5,625 views 1 this week
no commentswrite comment
1 2 3 4 5
please rate
add to favorites
launch autoscroll
font size
0
reset
how to read this tab
guitar tuner
Tab Pro tools
  • play this tab
  • loop segment
  • change instrument
  • show fretboard
  • metronome
×
Best way to learn
"Three Words"
Autoscroll
slow
fast
+/-
esc
set tempo
stop
Contributor
Capo
1st fret
I pretty much fell in love with the song and had to learn how to play this. So I 
asked help from my brother and this is what we got.

Capo on 1st fret

Intro:
|---------------------------------------------------------------------|
|-----1---3---1--------1---3---1--------1---3---1--------1---3---1----|
|---0-----------0----0-----------0----0-----------0----0-----------0--|
|---------------------------------------------------------------------|
|-----------------------------------3-----3---3------3-----3---3------|
|-1-----1---1------3-----3---3----------------------------------------|

|----------------------------------------------------3--|
|-----1---3---1--------1---3---1--------1---3---1----3--|
|---0-----------0----0-----------0----0-----------0--0--|
|----------------------------------------------------0--|
|----------------------------------------------------2--|
|-1-----1---1------3-----3---3------3-----3---3------3--|

Verse
|---------------------------------------------------------------------|
|-----1---3---1--------1---3---1--------1---3---1--------1---3---1----|
|---0-----------0----0-----------0----0-----------0----0-----------0--|  4x
|---------------------------------------------------------------------|
|-----------------------------------3-----3---3------3-----3---3------|
|-1-----1---1------3-----3---3----------------------------------------|

Chorus
|---------------------------------------------------------------------|
|-----1---3---1--------1---3---1--------1---3---1--------1---3---1----|
|---0-----------0----0-----------0----0-----------0----0-----------0--|
|---------------------------------------------------------------------|
|-----------------------------------3-----3---3-----------------------|
|-0-----0---0------1-----1---1-----------------------3-----3---3------|
  When I give up, and fall down, you always get me through.

|---------------------------------------------------------------------|
|-----1---3---1--------1---3---1--------1---3---1--------1---3---1----|
|---0-----------0----0-----------0----0-----------0----0-----------0--|
|---------------------------------------------------------------------|
|-----------------------------------0-----0---0-----------------------|
|-0-----0---0------1-----1---1-----------------------3-----3---3------|
  It reminds me of our love, and everything with you.

|---------------------------------------------------------------------|
|-----1---3---1--------1---3---1--------1---3---1--------1---3---1----|
|---0-----------0----0-----------0----0-----------0----0-----------0--|
|---------------------------------------------------------------------|
|-----------------------------------3-----3---3-----------------------|
|-0-----0---0------1-----1---1-----------------------3-----3---3------|
  When it comes, to times like this, I love what you do.

|-----------------------------------------------------3--|
|-----1---3---1--------1---3---1--------1---3---1-----3--|
|---0-----------0----0-----------0----0-----------0---0--|
|-0-----0---0-----------------------------------------0--|
|-----------------------------------------------------2--|
|------------------0-----0---0------1-----1---1-------3--|
  It's three words in every language, it's how much.


Verse 2:
        F               G               C
When I look across the skyline, you're runnin' through my mind.
      F                 G          C
When trees sway in the nighttime, you're the one I find.
        F          G         C
As the days go by slowly, I want to hold you close.
   F       G         C
I love you so much. Girl you'll never know!


Chorus:
        Em           F              C             G
When I give up, and fall down, you always get me through.
       Em         F              Am             G
It reminds me of our love, and everything with you.
         Em        F                  C            G
When it comes, to times like this, I love what you do.
      Dm                    Em                F      G
It's three words in every language, it's how much, 
       C    G    F
I love you. 
       C    G    F
I love you. 
       C    G    F
I love you. 
       C    G    F
I love you.


|---------------------------------------------------------------------|
|-----1---3---1--------1---3---1--------1---3---1--------1---3---1----|
|---0-----------0----0-----------0----0-----------0----0-----------0--|
|---------------------------------------------------------------------|
|-----------------------------------3-----3---3-----------------------|
|-0-----0---0------1-----1---1-----------------------3-----3---3------|
  When I give up, and fall down, you always get me through.

|---------------------------------------------------------------------|
|-----1---3---1--------1---3---1--------1---3---1--------1---3---1----|
|---0-----------0----0-----------0----0-----------0----0-----------0--|
|---------------------------------------------------------------------|
|-----------------------------------0-----0---0-----------------------|
|-0-----0---0------1-----1---1-----------------------3-----3---3------|
  It reminds me of our love, and everything with you.

|-----------------------------------------------------3--|
|-----1---3---1--------1---3---1--------1---3---1-----3--|
|---0-----------0----0-----------0----0-----------0---0--|
|-----------------------------------------------------0--|
|-----------------------------------3-----3---3-------2--|
|-0-----0---0------1-----1---1------------------------3--|
  When it comes, to times like this, I love what you do.



   Em           F              C             G
When I give up, and fall down, you always get me through.
       Em         F              Am             G
It reminds me of our love, and everything with you.
         Em        F                  C            G
When it comes, to times like this, I love what you do.
      Dm                   Em             Dm                   Em
It's three words in every language, it's three words in every language, 
      Dm                   Em
it's three words in every language.
          F      G
It's how much, 

|---------------3--0--|
|------1-----1--3--1--|
|----0-----0----0--0--|
|---------------0--2--|
|---------------2--3--|
|--1-----0------3-----|


This was learned everything by ear. So don't hesitate to correct me if I'm wrong. :)

@CallMeBexter
comments
We did not receive enough feedback on this tab! Please rate:
print report bad tab
1 2 3 4 5
I want to post or [tab]
guest
You may want to rate the tab now too:
select rating
Please do not post tabs as comments. Select "correction" instead!