Oops, an error
Loading. Please wait.

Broken Thoughts Of Righteousness Tab

version 1
version 1

Whole song

Interactive

91 views 1 this week
no commentswrite comment
1 2 3 4 5
2 more votes to show rating
add to favorites
launch autoscroll
font size
0
reset
how to read this tab
guitar tuner
Autoscroll
slow
fast
+/-
esc
set tempo
stop
Help us to improve Ultimate-Guitar.com Take our survey!
×
Author
Band: Beheaded
Album: Recounts of Disembodiment
Song: Broken Thoughts of Righteousness

Copyright (c) Forever Underground Records, 2002
Version 1.0, 11/6/2006 - 17/6/2006

 
Code:
Suffixes for bend:
fb - full bend       hb - half bend
qb - quarter bend    t - tap bend
r - release bend

Suffixes for harmonic:
^ - pinched harmonic      n – natural harmonic

Suffixes for mute:
. – palm mute            x – staccato mute
, - light palm mute      ; - heavy palm mute

Other:
/ - slide up to            \ - slide down to       
h - hammer on              p - pull off
" - tremolo note           <> - Trill
* - see comment

Tuning C F A# D# G C

Intro (0:23) play twice
|---------------------------------------------|
|---------------------------------------------|
|---------------------------------------------|
|---------------------------------------------| gtr 1
|-----7"-------5"-----------------------------|
|-6"-----8"-6"----7"-6"--7"-6"-4"-6"-7"-6"-4"-|

|---------------------------------------------|
|---------------------------------------------|
|---------------------------------------------|
|---------------------------------------------| gtr 2
|---------------------------------4"-5"-4"-2"-|
|---------------------------------------------|

Riff 1 (0:31) play 8 times
|---------------------------------------------|
|---------------------------------------------|
|---------------------------------------------|
|---------------------------------------------| gtr 1
|-----7"-------5"-----------------------------|
|-6"-----8"-6"----7"-6"--7"-6"-4"-6"-7"-6"-4"-|

|---------------------------------------------|
|---------------------------------------------|
|---------------------------------------------|
|---------------------------------------------| gtr 2
|-----7"-------5"-----------------4"-5"-4"-2"-|
|-6"-----8"-6"----7"-6"--7"-6"-4"-------------|

Riff 2 (0:59)
                           [x7]
|-----------------------------|-------------------------------|
|-----------------------------|-------------------------------|
|-----------------------------|--------------weird feedbacky--|
|-------5---------5"------6"--|-------5----------shit---------|
|-5--8--3--5------------------|-5--8--3--5--------------------|
|-3--6-----3--0"------0"------|-3--6-----3--------------------|
  .  .  .  .                    .  .  .  .

Riff 3a (1:14) play 4 times
|--------------------------------------|
|--------------------------------------|
|--------------------------------------|
|-5"-6"----5"-6"----8"-9"----8"-9"-----|
|--------------------------------------|
|-------0"-------0"-------0"-------0"--|

Riff 3b (1:25) play 4 times
|--------------------------------------|
|--------------------------------------|
|--------------------------------------|
|-5"-6"----5"-6"----8"-9"----8"-9"-----| gtr 1
|--------------------------------------|
|-------0"-------0"-------0"-------0"--|

|--------------------------------------|
|--------------------------------------|
|-3"-4"----3"-4"----6"-7"----6"-7"-----|
|--------------------------------------| gtr 2
|--------------------------------------|
|-------0"-------0"-------0"-------0"--|

Riff 4 (1:36)
                           [x7]
|-----------------------------|---------------------------------|
|-----------------------------|---------------------------------|
|-----------------------------|---------------------------------|
|-------5---------5"------6"--|-------5--------------------6^~--|
|-5--8--3--5------------------|-5--8--3--5--6----3----4---------|
|-3--6-----3--0"------0"------|-3--6-----3--4----1----2---------|
  .  .  .  .                    .  .  .  .  ;    ;    ;


Riff 5 (1:52) play 4 times
     [x1]                   [x2]                                [x1]
|-------|----------------------|-----------------------------------|
|-------|----------------------|-----------------------------------|
|-------|----------------------|-----------------------------------|
|-------|----------------------|-------------------------------6^~-|
|-5--6--|-8--------------5--6--|-8--------------2--3--3--2--3------|
|-3--4--|-6--3-3-4-4-3-3-3--4--|-6--3-3-4-4-3-3-0--1--1--0--1------|
  .  .    .  . . . . . . .  .       . . . . . .

Fill 1a (2:14)
|-----------------------------------------------|
|-----------------------------------------------|
|-----------------------------------------------|
|-------5"-------------3"-------5"--------------| gtr 1
|-2--------6"-4"-7"-------2--------6"-4"-7"-2---|
|-0--3"-------------4"----0--3"-------------0---|
  x                       x                 ;

|-----------------------------------------------|
|-----------------------------------------------|
|-----------------------------------------------|
|-----------------------------------------------| gtr 2
|-2-----------------------2-----------------8---|
|-0-----------------------0-----------------6---|
  x                       x                 ;

Riff 5 x 1 (2:17)

Fill 1a (2:39)
|--------------------------------------------------|
|--------------------------------------------------|
|--------------------------------------------------|
|-------5"-------------3"-------5"-------------3"--| gtr 1
|-2--------6"-4"-7"-------2--------6"-4"-7"--------|
|-0--3"-------------4"----0--3"-------------4"-----|
  x                       x

|--------------------------------------------------|
|--------------------------------------------------|
|--------------------------------------------------|
|--------------------------------------------------| gtr 2
|-2-----------------------2---2--------------------|
|-0-----------------------0---0--------------------|
  x                       x   x

Riff 6 (2:42)
                    [x18]   [x1]
|-----------------------|------|-------------|
|-----------------------|------|-------------|
|-----------------------|------|--drums------|
|-----5"-------------3"-|-2----|-------------|
|--------6"-4"-7"-------|-0----|-------------|
|-3"--------------4"----|-0----|-------------|
                          ;

Riff 1 x 1 (3:16)
Riff 4 x 1 (3:45)
Riff 5 x 1 (4:01)
End (4:23)
Suggest correction
Give kudos to tab author, rate the tab!
1 2 3 4 5
comments
print report bad tab
guest
You may want to rate the tab now too:
select rating
Wanna post a correction for this tab? Suggest correction