Oops, an error
Loading. Please wait.

Recounts Of Disembodiment Tab

version 1
version 1

Whole song

Interactive

67 views 1 this week
no commentswrite comment
1 2 3 4 5
please rate
add to favorites
launch autoscroll
font size
0
reset
how to read this tab
guitar tuner
Autoscroll
slow
fast
+/-
esc
set tempo
stop
Help us to improve Ultimate-Guitar.com Take our survey!
×
Author
Band: Beheaded
Album: Recounts of Disembodiment
Song: Recounts of Disembodiment

Copyright (c) Forever Underground Records, 2002
Version 1.0, 10/6/2006, 11/6/2006

 
Code:
Suffixes for bend:
fb - full bend       hb - half bend
qb - quarter bend    t - tap bend
r - release bend

Suffixes for harmonic:
^ - pinched harmonic      n – natural harmonic

Suffixes for mute:
. – palm mute            x – staccato mute
, - light palm mute      ; - heavy palm mute

Other:
/ - slide up to            \ - slide down to       
h - hammer on              p - pull off
" - tremolo note           <> - Trill
* - see comment

Tuning C F A# D# G C

Riff 1 (0:04) play 4 times
|---------------------------------------------------------|
|---------------------------------------------------------|
|---------------------------------------------------------|
|-------------------------------------------------9-6-9-6-|
|-------------------------------------------------7-4-7-4-|
|-666-333-222-666-222-333-666-222-666-333-222-666---------|
  ... ... ... ... ... ... ... ... ... ... ... ... . . . .

Riff 2 (0:23) play 4 times
|---------------------------------------|
|---------------------------------------|
|---------------------------------------|
|---------------------------------------|
|-----7"-----6"-9"------7"-----6"-------|
|-0"------0"-------0"-------6"----7"-6"-|

Fill 1 (0:40) play twice
|---------------------------------|
|---------------------------------|
|---------------------------------|
|-4-------------------------------|
|---------4-------4---------2-5-6-|
|---3-3-3---3-3-3---3-3-3-0-------|
    . . .   . . .   . . . . . . .

Riff 3a (0:43)
                               [x3]                         [x1]
|---------------------------------|----------------------------|
|---------------------------------|----------------------------|
|---------------------------------|----------------------------|
|-4-------------------------------|-4--------------------------|
|---------4-------4---------2-5-6-|---------4---------2-5-6-2--|
|---3-3-3---3-3-3---3-3-3-0-------|---3-3-3---3-3-3-0----------|
    . . .   . . .   . . . . . . .     . . .   . . . . . . . x

Riff 3b (0:49) play 4 times
|---------------------------------|
|---------------------------------|
|---------------------------------|
|-4-------------------------------|
|---------4-------4---------2-5-6-|
|---3-3-3---3-3-3---3-3-3-0-------|
    . . .   . . .   . . . . . . .

Riff 2 x 1 (0:56)
Riff 3a x 1 (1:12)
Riff 3b x 1 (1:19)

Riff 4 (1:25) play 12 times
|--------------------------------|
|--------------------------------|
|--------------------------------|
|--------------------------------|
|-4-5-4--3--2--3--2--4-3-5^------|
|-2-3-2--1--0--1--0--2-1-----000-|
  . . .  .  .  .  .  . .     ...

Riff 5 (1:52)
                              [x4]     [x1]
|--------------------------------|--------|
|--------------------------------|--------|
|--------------------------------|--------|
|---------4----------------4---4-|--------|
|-2-2-2-4-2--2-2-2-4-2-2-2-2---2-|-4------|
|-0-0-0-2----0-0-0-2-0-0-0---0---|-2------|
  . . . .    . . . . . . .   .     .

Riff 4 x 1 (2:02)
Guitars stop (2:20)

Riff 6 (2:25) play 4 times
               [x3]
|-----------------|---------------|
|-----------------|---------------|
|-----------------|---------------|
|-----------------|---------------|
|-----------------|----7^-----9^--|
|-6-6-2-2-3-3-0-0-|-000----000----|
  . . . . . . . .   ...    ...

Fill 2 (2:40)
                              [x3]
|--------------------------------|----------------------------------|
|--------------------------------|----------------------------------|
|--------------------------------|----------------------------------|
|---------4----------------4---4-|---------4------------------------|
|-2-2-2-4-2--2-2-2-4-2-2-2-2---2-|-2-2-2-4-2--2-2-2-4----7^-----9^--|
|-0-0-0-2----0-0-0-2-0-0-0---0---|-0-0-0-2----0-0-0-2-000----000----|
  . . . .    . . . . . . .   .     . . . .    . . .   ...    ...

Riff 6 x 1 (2:48)

Riff 7 (3:03) play 8 times
|------------------------------|
|------------------------------|
|------------------------------|
|---------------------------4--|
|---------3-3-2-------------2--|
|-000-000-1-1-0-000-0-0-0-0----|
  ... ... . .   ... . . . .

Riff 6 x 1/4 (3:20)
Riff 7 x 1 (3:24)
Riff 6 x 1/4 (3:41)
Fade out, end
Suggest correction
What's this?
You can suggest a correction to this tab. Community and Mods will review your correction and vote to approve or reject it.
comments
We did not receive enough feedback on this tab! Please rate:
print report bad tab
1 2 3 4 5
guest
You may want to rate the tab now too:
select rating
Please do not post tabs as comments. Select "correction" instead!