Oops, an error
Loading. Please wait.

Resurgence Of Oblivion Tab

40 views 1 this week
no commentswrite comment
1 2 3 4 5
please rate
add to favorites
launch autoscroll
font size
0
reset
how to read this tab
guitar tuner
Autoscroll
slow
fast
+/-
esc
set tempo
stop
Help us to improve Ultimate-Guitar.com Take our survey!
×
Contributor
ialisos 8,491
--- B E H E A D E D  --- 
                          "Resurgence Of Oblivion" 
                     From album: "Resurgence Of Oblivion" 
                     Copyright Forever Underground Recs. 2000 © 
                     
                            TABULATURE LEGEND: 
                   " - tremolo             h - hammer on            
                   ~ - vibrato             \ - slide down 
                   p - pull off            / - slide down 
                  tr - trill               ^ - pinch harmonics      
                (),= - sustained note      b - bend string          
                p.m. - palm muting         t - tapping 

TUNING: C, F, Bb, Eb, G, C 

[Intro] 
|---------------------| 
|---------------------| 
|---------------------| 
|---------------------| 
|-663-------885-------| 
|------663-------885--| 
  ...  ...  ...  ... 

[Riff 1 (x3)] 
||---|-------------------[x3]-|----------------------|| 
||o--|------------------------|---------------------o|| 
||---|------------------------|----------------------|| 
||---|-----^------------------|----------------------|| 
||o--|-----4~~----22----22----|-663-------885-------o|| 
||---|-333-----33----33----33-|------663-------885---|| 
       ...     .. .. .. .. ..   ...  ...  ...  ... 

[Outro] 
|-----------|-------------------------| 
|-----------|-------------------------| 
|-----------|-------------------------| 
|--2=======-|-------------------------| 
|--2=======-|-3--2--3--5--6--5--3--5--| 
|--0=======-|-1--0--1--3--4--3--1--3--| 
              .  .  .  .  .  .  .  . 

[Riff 2a (x2)] 
||---------------------------------------------------|- 
||o--------------------------------------------------|- 
||---------------------------------------------------|- 
||--------5"----6"----8"...--------5"----6"-5"-3"-2"-|- 
||o----4"----------------------4"--------------------|- 
||--3"-------3"----3"-------3"-------3"--------------|- 

-|------------------------------------------------------|| 
-|-----------------------------------------------------o|| 
-|------------------------------------------------------|| 
-|-------5"----6"----8"...--------5"----6""-5"----------|| 
-|----4"----------------------4"-----------------------o|| 
-|-3"-------3"----3"-------3"-------3"---------5-6-5-6--|| 

[Riff 3a (x4)]                    [Riff 3b (x4)] 
||---------------------------|| ||-------------------|| 
||o-------------------------o|| ||o-----------------o|| 
||---------------------------|| ||-------------------|| 
||---------------------------|| ||----------------5--|| 
||o-------------------------o|| ||o-7-8-7-5-7-8-7-3-o|| 
||--5"-6"-5"-3"-5"-6"-5"-8"--|| ||--5-6-5-3-5-6-5----|| 
                                    . . . . . . . 
[Riff 2b (x2)] 
||---------------------------------------------------|- 
||o--------------------------------------------------|- 
||---------------------------------------------------|- 
||--------5"----6"----8"...--------5"----6"-5"-3"-2"-|- 
||o----4"----------------------4"--------------------|- 
||--3"-------3"----3"-------3"-------3"--------------|- 

[ending 1] 
-|------------------------------------------------------|| 
-|-----------------------------------------------------o|| 
-|------------------------------------------------------|| 
-|-------5"----6"----8"...--------5"----6""-5"----------|| 
-|----4"----------------------4"-----------------------o|| 
-|-3"-------3"----3"-------3"-------3"---------5-6-5-6--|| 

[ending 2] 
-|------------------------------------------------------|| 
-|------------------------------------------------------|| 
-|------------------------------------------------------|| 
-|-------5"----6"----8"...--------5"----6""-5"----------|| 
-|----4"----------------------4"---------------8--------|| 
-|-3"-------3"----3"-------3"-------3"---------6--------|| 
                                              . 
[RIFF 3a (x4)] [RIFF 3b (x4)] [INTRO] 

[Riff 4 (x8)] 
||----------------------------|---------------------------|| 
||o---------------------------|--------------------------o|| 
||----------------------------|---------------------------|| 
||----------------------------|---------------------------|| 
||o-5"....--------------------|--------------------------o|| 
||---------2"-0"....-3"-6"-3"-|-2"-3"-2"-6"....-5"-3"-5"--|| 
|                             |                            | 
||----------------------------|---------------------------|| 
||o---------------------------|--------------------------o|| 
||----------------------------|---------------------------|| 
||----------------------------|---------------------------|| 
||o-2"....--------------------|----------4"....----------o|| 
||---------2"-0"....-3"-6"-3"-|-2"-3"-2"--------5"-3"-5"--|| 

[Outro 2] 
|-----------------------| 
|-----------------------| 
|-----------------------| 
|-----------------4-----| 
|-2==============-2-----| 
|-0==============-------| 
                  . 

[Riff 5 (x8)] 
||------------------------------|-----------------------------|| 
||o-----------------------------|----------------------------o|| 
||------------------------------|-----------------------------|| 
||------------------------------|-----------------------------|| 
||o-6-6-----3--2--6-6-----3--2--|-6-6-----3--2------7tr10----o|| 
||--4-4-0-0-1--0--4-4-0-0-1--0--|-4-4-0-0-1--0--1/------------|| 
    . . . . .  .  . . . . .  .    . . . . .  . 

[Riff 6 (x2] 
||------------------------------|------------------------------|| 
||o-----------------------------|-----------------------------o|| 
||------------------------------|------------------------------|| 
||------------------------------|----------------------<5>...--|| 
||o-6-6-----3--2--6-6-----3--2--|-6-6-----3--2--<5>...--------o|| 
||--4-4-0-0-1--0--4-4-0-0-1--0--|-4-4-0-0-1--0-----------------|| 
    . . . . .  .  . . . . .  .    . . . . .  .  natural harmonic 

[Riff 5 (x2)] [Riff 6 (x2)] 

          [Riff 7 (x4)] /under solo 1/ 
|-------||--------------------------------------------------------|| 
|-------||o------------------------------------------------------o|| 
|-------||--------------------------------------------------------|| 
|-------||--------------------------------------------------------|| 
|-6--5--||o------------------------------------------------------o|| 
|-4--3--||--0"....-6"-3"....-0"-1"-4"-0"....-6"-3"....-0"-1~~~~~--|| 

[Riff 8 (x8)] 
||-----------------------------|| 
||o---------------------------o|| 
||-----------------------------|| 
||------6----------------------|| 
||o-5-5-4--5--6--8/9-2--6--5--o|| 
||--3-3----3--4--6/7-0--4--3---|| 
    . .    .  .      .  .  . 

[RIFF 7 (x4)] /under solo 2/ [RIFF 8 (x8)] 

[Outro 3] 
|-----------------| 
|-----------------| 
|-----------------| 
|-----------------| 
|-3-2-3-5-6-5-3-5-| 
|-1-0-1-3-4-3-1-3-| 
  . . . . . . . . 

[RIFF 2b (x2)] [RIFF 3a (x4)] [RIFF 3b (x4)] 
[RIFF 4 (........fade out 

END OF SONG
comments
We did not receive enough feedback on this tab! Please rate:
print report bad tab
1 2 3 4 5
I want to post or [tab]
guest
You may want to rate the tab now too:
select rating
Please do not post tabs as comments. Select "correction" instead!