Oops, an error
Loading. Please wait.

Vaults Of Ageless Pain Tab

41 views 1 this week
no commentswrite comment
1 2 3 4 5
3 more votes to show rating
add to favorites
launch autoscroll
font size
0
reset
how to read this tab
guitar tuner
Autoscroll
slow
fast
+/-
esc
set tempo
stop
Help us to improve Ultimate-Guitar.com Take our survey!
×
Author
Band: Beheaded
Album: Ominous Bloodline
Song: Vaults of Ageless Pain

Copyright (c) Unique Leader Records, 2005
Version 1.0, 6/3/2006, 7/3/2006
 
Code:
Suffixes for bend:
fb - full bend       hb - half bend
qb - quarter bend    t - tap bend
^ - Hold bend        r - release bend
~ - vibrato bend

Suffixes for harmonic:
ph - pinched harmonic      nh – natural harmonic
ah – artificial harmonic   hh – harp harmonic

Suffixes for mute:
. – palm mute            x – staccato mute
, - light palm mute      ; - heavy palm mute

Other:
/ - slide up to            \ - slide down to       
h - hammer on              p - pull off
‘ - sustained note         * - see comment
" - tremolo note           <> - Trill
L – left channel only      R – right channel only
= - 12 string guitar part

Tuning G C F A# D# G C

Riff 1 (0:00) play 5 times
|-----------------------------------------------------------------|
|-----------------------------------------------------------------|
|-----------------------------------------------------------------|
|---------3-3-5~----------3-3-5~----------3-3-5~--------------3~--|
|-----4-4-------------4-4-------------4-4-----------------6-6-----|
|-6-6-------------6-6-------------6-6-------------3-3-6-6---------|
|-----------------------------------------------------------------|
  . . . . . .     . . . . . .     . . . . . .     . . . . . .

Riff 2 (0:16) play 8 times
|-----------------10101010----------|
|-----------------------------------|
|-----------------------------------|
|-3333------------------------------|
|-----------------------------------| gtr 1
|-----3333----2222---------6p3-6p3--|
|---------5555----------------------|

|-----------------10101010----------|
|-----------------------------------|
|-----------------------------------|
|-3333------------------------------|
|--------------------------7ph~-----| gtr 2
|-----3333----2222------------------|
|---------5555----------------------|

Riff 3a (0:30)
|----------------------------------------------------|
|----------------------------------------------------|
|----------------------------------------------------|
|-3333----------3333----------3333----------33334444-|
|------5-----4-------5-----4-------5-----4-----------|
|------3--7--2-------3--7--2-------3--7--2-----------|
|---------5-------------5-------------5--------------|
       .  .  .       .  .  .       .  .  .

Riff 3b (0:34)
|----------------------------------------------------|
|----------------------------------------------------|
|----------------------------------------------------|
|-3333----------3333----------3333----------33334444-|
|------5-----4-------5-----4-------5-----4-----------| gtr 1
|------3--7--2-------3--7--2-------3--7--2-----------|
|---------5-------------5-------------5--------------|
       .  .  .       .  .  .       .  .  .
|----------------------------------------------------|
|----------------------------------------------------|
|-------------------------------------------55556666-|
|-3333----------3333----------3333-------------------|
|------5-----4-------5-----4-------5-----4-----------| gtr 2
|------3--7--2-------3--7--2-------3--7--2-----------|
|---------5-------------5-------------5--------------|
       .  .  .       .  .  .       .  .  .

Riff 2 x 1 (0:37)
Riff 3a x 1 (0:51)
Riff 3b x 1 (0:55)

Riff 4 (0:58) play 8 times
|--------------------------|
|--------------------------|
|--------------------------|
|--------------------------|
|--------------------8--8--|
|-8"-------------7-7-6--6--|
|----5"-8"-9"-8"-5-5-------|
                 . .

Riff 1 x 1/2 (1:19)

Riff 5 (1:24) play 12 times
|-----------------------------|
|-----------------------------|
|-----------------------------|
|-----------------------------|
|-----------------------------|
|-10--9---8---2-h3--2-h6--p2--|
|-8---7---6-------------------|
  .   .   .

Riff 6 (1:42) play 4 times
|-----------------------------|
|-----------------------------|
|-----------------------------|
|-----------------------------|
|-----------------------------|
|-6---5---4-------------------|
|-4---3---2---3-h4--3-h7--p3--|
  .   .   .

Riff 7 (1:48)
                                               [x2]     [x1]
|-------------------------------------------------|--------|
|-------------------------------------------------|--------|
|-------------------------------------------------|--------|
|-------------------------------------------------|--------|
|-------------------------------------------5-----|--------|
|-6--5--4--5--6--5--4--8--6--5--4--5--6--5--3--8--|-3~-----|
|-4--3--2--3--4--3--2--6--4--3--2--3--4--3-----6--|-1~-----|
  .  .  .  .  .  .  .  .  .  .  .  .  .  .  .  .

Riff 8 (1:55) play 4 times   * = don’t play this note on first time
|-------------------------|
|-------------------------|
|-------------------------|
|-*-----------------------|
|-9"-6"-------6"-7"-------|
|-------6"-5"-------6"-9"-|
|-------------------------|

Riff 7 x 1 (2:01)
Riff 8 x 1 (2:07)

Riff 9 (2:14) play 6 times
|---------------------------------------------|
|---------------------------------------------|
|---------------------------------------------|
|------5555555555555555-----------------------|
|-2---------------------2---------------------|
|-0---------------------0----3333330066666666-|
|---------------------------------------------|

Riff 4 x 1 (2:49)
Riff 9 x 1/3 (3:09)
Riff 1 x 1/5 (3:20)
Riff 2 x 1 (3:24)
Riff 3a x 1 (3:38)
Riff 3b x 1 (3:41)
Riff 2 x 1 (3:45)
Riff 3a x 1 (3:59)
Riff 3b x 1 (4:02)
Riff 1 x 1 (4:06)
End
Suggest correction
Give kudos to tab author, rate the tab!
1 2 3 4 5
comments
print report bad tab
guest
You may want to rate the tab now too:
select rating
Wanna post a correction for this tab? Suggest correction