Oops, an error
Loading. Please wait.

Antichristian Phenomenon Tab

version 1
version 1

Live

Interactive

328 views 3 this week
no commentswrite comment
1 2 3 4 5
please rate
add to favorites
launch autoscroll
font size
0
reset
how to read this tab
guitar tuner
Autoscroll
slow
fast
+/-
esc
set tempo
stop
Help us to improve Ultimate-Guitar.com Take our survey!
×
Author
Difficulty
Tuning
advanced
C# G# C# F# A# D#
Whole song done by ear

   
----INTRO----
C#|---------------------------|
G#|---------8-8---------------|
E |---------9-9---------------|x3
B |---------9-9---------8//6--|                                      
F#|---2-----7-7---------6//3--|                                      
C#|\\\0-0-0-----0-0-0-0-------|       
        . .     . . . .           
   
C#|---------------------------|
G#|---------------------------|
E |-----6*-----6*----6*-6*-6*-|x1 (NOTE: * <-- means naturual harmonic)
B |---------------------------|
F#|---------------------------|
C#|-0-0----0-0----0-0---------|
    . .    . .    . . 


C#|-------------------------|
G#|-------8-8---------------|
E |-------9-9---------------|x3 another 3 more times
B |-------9-9---------8//6--|                                      
F#|-2-----7-7---------6//3--|                                      
C#|-0-0-0-----0-0-0-0-------|       
      . .     . . . .         

C#|--------------------|
G#|-------8-8----------|
E |-------9-9----------|
B |-------9-9-----8//6-|x1
F#|-2-----7-7--2--6//3-|
C#|-0-0-0------0-------|               
      . .      .
   

C#|------------------------------|
G#|----------8-8-----------------|
E |----------9-9-----------------|
B |----------9-9-----------8//6--|x4 tremolo pick the open C# string
F#|----------7-7-----------6//3--|
C#|-00000000-----000000000-------|

---VERSE---    
C#|--------------------------------|
G#|--------------------------------|
E |--444---4---333---444---4-------|
B |--------------------------------|x4
F#|--------------------------------|
C#|-0----0---0-----0-----0---0-4321|
    .    .   .     .     .   . ....


C#|-------------------------------|
G#|-------------------------------|
E |---9-9---8---8-8---9-9---------|
B |---x-x---x---x-x---x-x---------|x2
F#|---7-7---7---6-6---7-7---------|
C#|-0-----0---0-----0-----0-3421--|
    .     .          .    . ....


C#|--------------------------------|
G#|--------------------------------|
E |--444---4---333---444---4-------|
B |--------------------------------|x2
F#|--------------------------------|
C#|-0----0---0-----0-----0---0-4321|
    .    .   .     .     .   . ....


C#|--------------------|
G#|-------8-8----------|
E |-------9-9----------|
B |-------9-9-----8//6-|x3
F#|-2-----7-7--2--6//3-|
C#|-0-0-0------0-------|               
      . .      .
Don't know the solo yet. I'll try to also by ear after I submit this tab.

(Riff over the solo)
C#|---------------------------|
G#|---------8-8---------------|
E |---------9-9---------------|x3
B |---------9-9---------8//6--|                                      
F#|---2-----7-7---------6//3--|                                      
C#|\\\0-0-0-----0-0-0-0-------|  
        . .     . . . .
---BRIDGE---
C#|--------------------------------|
G#|--------------------------------|
E |--444---4---333---444---4-------|
B |--------------------------------|x2
F#|--------------------------------|
C#|-0----0---0-----0-----0---0-4321|
    .    .   .     .     .   . ....

C#|-------------------------------|
G#|-------------------------------|
E |---9-9---8---8-8---9-9---------|
B |---x-x---x---x-x---x-x---------|x2
F#|---7-7---7---6-6---7-7---------|
C#|-0-----0---0-----0-----0-3421--|
    .     .          .    . ....

C#|--------------------------------|
G#|--------------------------------|
E |--444---4---333---444---4-------|
B |--------------------------------|x2
F#|--------------------------------|
C#|-0----0---0-----0-----0---0-4321|
    .    .   .     .     .   . ....
(NOTE: ! means Pinch Harmonic)
C#|---------------------------------------------------------------------------------|
G#|---------------------------------------------------------------------------------|
E |--4//7\\3---4//7\\3---4//7\\3---4//7\\3-----2!~~~-----2!~~~----2!~~~----2!~~~----|
B |--x--x--x---x--x--x---x--x--x---x--x--x------------------------------------------|X2
F#|2-2//5\\1-2-2//5\\1-2-2//5\\1-2-2//5\\1------------------------------------------|
C#|0---------0---------0---------0---------1100-----1100-----1100-------------------|

C#|-----------------------------------------|
G#|-----------------------------------------|
E |-----------------------------------------|
B |-----------55555554444444222222----------|X2
F#|-----------------------------------------|
C#|-0000000000--------------------000000000-|

C#|-------------------|
G#|-------------------|
E |-------------------|
B |-8----4---7///6--3-|x1
F#|-x----x---x---x--x-|
C#|-6----2---5///4--1-|

C#|--------------------------------|
G#|--------------------------------|
E |--------------------------------|
B |---------5555554444444422222222-|x2
F#|-222-222------------------------|
C#|-000-000------------------------|

C#|-------------------|
G#|-------------------|
E |-------------------|
B |-8----4---7///6--3-|x1
F#|-x----x---x---x--x-|
C#|-6----2---5///4--1-|

C#|-----------------------------------------|
G#|-----------------------------------------|
E |-----------------------------------------|
B |-----------55555554444444222222----------|X2
F#|-----------------------------------------|
C#|-0000000000--------------------000000000-|

C#|-------------------|
G#|-------------------|
E |-------------------|
B |-8----4---7///6--3-|x1
F#|-x----x---x---x--x-|
C#|-6----2---5///4--1-|

C#|--------------------------------|
G#|--------------------------------|
E |--------------------------------|
B |---------5555554444444422222222-|x2
F#|-222-222------------------------|
C#|-000-000------------------------|

C#|-------------------|
G#|-------------------|
E |-------------------|
B |-8----4---7///6--3-|x1
F#|-x----x---x---x--x-|
C#|-6----2---5///4--1-|

C#|---------------------------------------------------------------------------------|
G#|---------------------------------------------------------------------------------|
E |--4//7\\3---4//7\\3---4//7\\3---4//7\\3-----2!~~~-----2!~~~----2!~~~----2!~~~----|
B |--x--x--x---x--x--x---x--x--x---x--x--x------------------------------------------|X2
F#|2-2//5\\1-2-2//5\\1-2-2//5\\1-2-2//5\\1------------------------------------------|
C#|0---------0---------0---------0---------1100-----1100-----1100-------------------|

C#|--------------------------------|
G#|--------------------------------|
E |--444---4---333---444---4-------|
B |--------------------------------|x6
F#|--------------------------------|
C#|-0----0---0-----0-----0---0-4321|
    .    .   .     .     .   . ....

C#|-----------------|
G#|----8------------|
E |----9------------|
B |----9-------8//6-|x3
F#|-2--7----2--6//3-|
C#|-0-------0-------|
    .       .
C#|---------|
G#|---------|
E |---------|x1
B |---------|
F#|-8-5-3-6-|
C#|-6-3-1-4-|
    . . . .
--ENDING--
C#|-------------------------|
G#|-------8-8---------------|
E |-------9-9---------------|x3
B |-------9-9---------8//6--|                                      
F#|-2-----7-7---------6//3--|                                      
C#|-0-0-0-----0-0-0-0-------|       
      . .     . . . .         

C#|-------------------------------------------------------------------|
G#|-------8-8---------------------------------------------------------|
E |-------9-9---------------------------------------------------------|
B |-------9-9---------8//6--------------------------------------------|END
F#|-2-----7-7---------6//3--000000000000000000000000000000-let ring-2-|  
C#|-0-0-0-----0-0-0-0-------000000000000000000000000000000----------0-| 
      . .     . . . .         
Suggest correction
Give kudos to tab author, rate the tab!
1 2 3 4 5
comments
print report bad tab
guest
You may want to rate the tab now too:
select rating
Wanna post a correction for this tab? Suggest correction