Oops, an error
Loading. Please wait.

As Above So Below Bass Tab

version 1
version 1

Whole song

Interactive

1,148 views 1 this week
1 commentread comment
1 2 3 4 5
please rate
add to favorites
launch autoscroll
font size
0
reset
guitar tuner
Autoscroll
slow
fast
+/-
esc
set tempo
stop
Help us to improve Ultimate-Guitar.com Take our survey!
×
Author
Tuning
A# F A# D# G C
As Above, So Below
Behemoth
Zos Kia Cultus - Here And Beyond (Track 4)

Tabbed by: Tuckley
Email: slipknot_ct@live.com
Bass Tuning - A#, F, A#, D# (Drop A#, lowest to highest)

Hey for all you people interested in this tab or just because you're bored out of your head.
I decided since this is one of my personal favourites from Behemoth and there was no 
bass tab for it.
So it was an easy choice for a song to attempt tabbing out.
I do play 3 finger bass, and this is just my interpretation of the song, however you 
want to play it is up to you.
Any constructive criticism is appreciated, the email's there. \m/

INTRO Pt 1 x4 (0:00 - 0:09)

D#|--------------------|
A#|--------------------|
F |--------------------|
A#|-000--00000--00000--|

INTRO Pt 2 x2 (0:10 - 0:28)

D#|--------------------------------------|
A#|--------------------------------------|
F |--------------------------------------|
A#|-000--11111--44444-000--11111--11111--|


D#|--------------------------------------|
A#|--------------------------------------|
F |--------------------------------------|
A#|-000--11111--44444-000--00000--00000--|

INTRO Pt 3 x2 (0:29 - 0:48)

D#|-----------------------------------|
A#|-----------------------------------|
F |---2200-------------2200-----------|
A#|-00----1111114444-00----1111111111-|


D#|-------------------------------------|
A#|-------------------------------------|
F |---2200------------------------------|
A#|-00----1111114444-000--00000--00000--|

PRE-VERSE x2 (0:49 - 1:07)


D#|-------------------------------------------------------|
A#|-------------------------------------------------------|
F |-------------------------------------------------------|
A#|-0~~-01~-101-4-4--1-4-1--0~~-001~-11-01-4-4-4-1-11-4-1-|

VERSE 1 x2 (1:08 - 1:27)

"I have seen, strange signs on my way. Silent shadows DANCING SHAPES!"
"And angels fallen, on the earth, face up and look there, where the root ov thy being, 
CANNOT REACH!"

D#|--------------------------------------|
A#|--------------------------------------|
F |--------------------------------------|
A#|-000--11111--44444-000--11111--11111--|


D#|--------------------------------------|
A#|--------------------------------------|
F |--------------------------------------|
A#|-000--11111--44444-000--00000--00000--|

VERSE 2 x2 (1:28 - 1:44)

"Art thou nephilim child? Are ye looking for, thy elysium here?"
"Among the living trees, among the fading stars, variability of FORMS!"

D#|-----------------------------------|
A#|-----------------------------------|
F |---2200-------------2200-----------|
A#|-00----1111114444-00----1111111111-|


D#|-------------------------------------|
A#|-------------------------------------|
F |---2200------------------------------|
A#|-00----1111114444-000--11111--11111--|

CHORUS 1 x4 (1:45 - 1:54)  (Guitar solo played)

D#|---------------------------------|
A#|---------------------------------|
F |---------------------------------|
A#|-0-4-3-1-0-3-0-4-0-4-3-1-3-4-3-1-|

POST-CHORUS 1 (1:54 - 1:58)

"Sometimes love, sometimes sadness of things"

D#|---------------------|
A#|---------------------|
F |---------------------|
A#|-0/7-7~~-4-6-4--1-4v~|


CHORUS RIFF x2 (1:58 - 2:02)

POST-CHORUS RIFF (2:02 - 2:06)

"Sometimes rapture, and wine of sabbath"

CHORUS RIFF x10 (2:06 - 2:29)

"Sometimes hatred, divine rage, and 93 tears"
"No limits, beyond the sin, GILGOLEM"

BRIDGE x4 (2:29 - 3:06)

D#|----------------------------------------|
A#|--------------------------6~-5~-3~-5~~--|
F |----------------------------------------|
A#|-0-0-0-0-0--00-0--0-0-0-0---------------|

D#|------------------------------------------|
A#|------------------------------------------|
F |--------------------------7-6h7p6-4-3v~~~-|
A#|-0-0-0-0-0--00-0--0-0-0-0-----------------|


CHORUS RIFF X3 (3:06 - 3:13)

"Ye taught me the secret words"

POST-CHORUS 2 x4 (3:13 - 3:22)

"IAO! SABAO! "

D#|--------------|
A#|--------------|
F |--------------|
A#|-00--000------|

VERSE 3 x2 (3:22 - 3:41)

"Why, why, whisper thoughts, but might is raised"
"When conjurer of, seasons hums the song, sorrowful joyful"
D#|--------------------------------------|
A#|--------------------------------------|
F |--------------------------------------|
A#|-000--11111--44444-000--11111--11111--|

D#|--------------------------------------|
A#|--------------------------------------|
F |--------------------------------------|
A#|-000--11111--44444-000--00000--00000--|

VERSE 4 x2 (3:42 - 4:01)

"Night is eternal, day is eternal, with runes ov life, and runes ov death"
"As above, so below, now its time, ov the beast"

D#|-----------------------------------|
A#|-----------------------------------|
F |---2200-------------2200-----------|
A#|-00----1111114444-00----1111111111-|


D#|-------------------------------------|
A#|-------------------------------------|
F |---2200------------------------------|
A#|-00----1111114444-000--00000--00000--|

PRE-VERSE RIFF x2 (4:01 - 4:20)

PAUSE (4:20 - 4:23)

VERSE 5 (4:23 - 4:30)

"Yeaaaahhhh"

D#|--------------------------------------------------|
A#|--------------------------------------------------|
F |---2-0-------------2-0--------------2-0-----------|
A#|-0----1-1-1-1-1--0-----1-1-1-4-4--0-----1-1-1-1-1-|

VERSE 6 (4:30 - 5:01) (Repeat until fade out)

D#|-----------------------------------|
A#|-----------------------------------|
F |---2200-------------2200-----------|
A#|-00----1111114444-00----1111111111-|

There you have it motherfuckers. \m/

h = hammer on
p = pull off
v = vibrato
~ = let ring
/ = slide up
\ = slide down
Suggest correction
What's this?
You can suggest a correction to this tab. Community and Mods will review your correction and vote to approve or reject it.
comments
We did not receive enough feedback on this tab! Please rate:
print report bad tab
1 2 3 4 5
1 comment total.
0 reply
tuckley 163 wrote on January 11 2012, 07:32 pm

Sorry, my mistake. It's in either C standard or A# standard

guest
You may want to rate the tab now too:
select rating
Please do not post tabs as comments. Select "correction" instead!