Oops, an error
Loading. Please wait.
We have an official Conquer All tab made by UG professional guitarists. Check out the tab »
×
59,100 views 15 this week
31 commentsread comments
1 2 3 4 5
x 24
add to favorites
launch autoscroll
font size
0
reset
how to read this tab
guitar tuner
backing track
0:00
0:00
Autoscroll
slow
fast
+/-
esc
set tempo
stop
Author
Tuning
C# F# B E G# C#
Artist: Behemoth
Song: Conquer All
Album: Demigod

Tuning: C# F# B E G# C#

[Intro]          
C#|----------------|------------------|-----------------|
G#|----------------|------------------|-----------------|
E |-10---9---------|-10---9---7---9---|-----------------|
B |-10---9---------|-10---9---7---9---|-----------------|
F#|--8---7---------|--8---7---5---7---|-----------------|
C#|--------000-000-|------------------|-111-444-111-111-|
        
[Verse]
C#|----------------|----------------|----------------|
G#|----------------|----------------|----------------|
E |-10---9---------|------7--7----9-|-9----10-10-----|
B |--x-------------|------x--x----x-|-x-----x--x-----|
F#|--8---7---------|------5--5----7-|-7-----8--8-----|
C#|----------------|----------------|----------------|

C#|----------------|----------------|
G#|----------------|----------------|
E |-10--9----------|----------------|
B |--x--x----------|----------------|
F#|--8--7----------|----------------|
C#|----------------|111-444-111-111-|
                                           
C#|----------------|----------------|----------------|
G#|----------------|----------------|----------------|
E |-10--9----------|------7--7----9-|-9----10-10-----|
B |--x--x----------|------x--x----x-|-x-----x--x-----|
F#|--8--7----------|------5--5----7-|-7-----8--8-----|
C#|----------------|----------------|----------------|

C#|----------------|----------------|
G#|----------------|----------------|
E |-10--9----------|----------------|
B |--x--x----------|----------------|
F#|--8--7----------|----------------|
C#|----------------|111-444-111-111-|
                                                    
C#|----------------|------------------|----------------|
G#|----------------|------------------|----------------|
E |-10---9---------|-10---9---7---9---|-10---9---------|
B |-10---9---------|-10---9---7---9---|-10---9---------|
F#|--8---7---------|--8---7---5---7---|--8---7---------|
C#|--------000-000-|------------------|--------000-000-|
                                     
C#|-----------------|----------------|------------------|
G#|-----------------|----------------|------------------|
E |-----------------|-10---9---------|-10---9---7---9---|
B |-----------------|-10---9---------|-10---9---7---9---|
F#|-----------------|--8---7---------|--8---7---5---7---|
C#|-111-444-111-111-|--------000-000-|------------------|
 
C#|---------------|-----------------|
G#|---------------|-----------------|
E |-7---6---------|-----------------|
B |-x---x---------|-----------------|
F#|-5---4---------|-----------------|
C#|-------000-000-|-111-444-111-111-|
        
(Gtr 1)
C#|-----------------|------------------|
G#|-----------------|------------------|
E |-----------------|------------------|
B |-----------------|------------------|
F#|-2--2-2-2-2--3/6-|-2-2--3/6-6/7-6\1-|
C#|-0--0-0-0-0--1/4-|-0-0--1/4-4/5-4\1-|
   
(Gtr 2)             
C#|-----------------|------------------|
G#|-----------------|------------------|
E |-----------------|------------------|
B |-----------------|------------------|
F#|-2---------------|------------------|
C#|-0--000011114444-|-4444001144444444-|

C#|-----------------|-----------------|
G#|-----------------|-----------------|
E |-----------------|-----------------|
B |---5\4---5\4---5\|\4-8-7-5-7-5-4-2-|
F#|---3\2---3\2---3\|\2-6-5-3-5-3-2-0-|
C#|-0-----0-----0---|-----------------|
  
(Gtr 1)
C#|-----------------|-----------------|
G#|-----------------|-----------------|
E |-----------------|-----------------|
B |---5\4---5\4---5\|\4-8-7-5-7-5-4-2-|
F#|-2-3\2-2-3\2-2-3\|\2-6-5-3-5-3-2-0-|
C#|-0-----0-----0---|-----------------|

(Gtr 2)
C#|-----------------|-----------------|
G#|-----------------|-----------------|
E |-----------------|-----------------|
B |-----------------|-----------------|
F#|-0-3-2-0-3-2-0-3-|-2-6-5-3-5-3-2-0-|
C#|-0-3-2-0-3-2-0-3-|-2-6-5-3-5-3-2-0-|

(Gtr 1)
C#|----------------|------------------|----------------|
G#|----------------|------------------|----------------|
E |-10---9---------|------------------|----------------|
B |-10---9---------|------------------|----------------|
F#|--8---7---------|------------------|-2--2-2--2--2-2-|
C#|----------------|------------------|-0--0-0--0--0-0-|

(Gtr 2)
C#|----------------|------------------|----------------|
G#|----------------|------------------|----------------|
E |-10---9---------|-10---9---7---9---|-10---9---------|
B |-10---9---------|-10---9---7---9---|-10---9---------|
F#|--8---7---------|--8---7---5---7---|--8---7---------|
C#|--------000-000-|------------------|--------000-000-|

(Gtr 1)
C#|-----------------|
G#|-----------------|
E |-----------------|
B |-----------------|
F#|-----------------|
C#|-111-444-111-111-|

(Gtr 2)            
C#|-----------------|
G#|-----------------|
E |-----------------|
B |-----------------|
F#|-----------------|
C#|-111-444-111-111-|

(Gtr 1)
C#|------------------------|------------------------|
G#|------------------------|------------------------|
E |-12-11----11------------|-15-14-12-14-12-11------|
B |-------13----13-12-13---|-------------------13---|
F#|------------------------|------------------------|
C#|------------------------|------------------------|

(Gtr 2)                               
C#|------------------------|------------------------|
G#|------------------------|------------------------|
E |-10--9-----9------------|-13-12-10-12-10--9------|
B |-------11----11-10-11---|-------------------11---|
F#|------------------------|------------------------|
C#|------------------------|------------------------|

(Gtr 1)
C#|----------------------|------------------------|
G#|----------------------|------------------------|
E |-15-14-12-14-12-11----|------------------------|
B |----------------------|-15-13-12-13-12-10-12-9-|
F#|----------------------|------------------------|
C#|----------------------|------------------------|
                        
(Gtr 2)                
C#|----------------------|------------------------|
G#|----------------------|------------------------|
E |-13-12-10-12-10--9----|------------------------|
B |----------------------|-13-11-10-11-10--8-10-7-|
F#|----------------------|------------------------|
C#|----------------------|------------------------|

C#|-----------------|------------------|------------------|
G#|-----------------|------------------|------------------|
E |-----------------|------------------|------------------|
B |--------9-9------|------------------|------------------|
F#|-2--2-2-7-7------|------------------|------------------|
C#|-0--0-0-----0044-|-1111111100114444-|-4444114455555555-|

C#|----------------|----------------|----------------|----------------|
G#|----------------|----------------|----------------|----------------|
E |----------------|----------------|----------------|----------------|
B |-.--------------|----------------|-5--------------|----------------|
F#|-2--------------|----------------|-3--------------|----------------|
C#|-0--------------|----------------|----------------|----------------|

C#|---------------------|---------------------|---------------------|
G#|---------------------|---------------------|---------------------|
E |---------------------|---------------------|---------------------|
B |---------------------|-5-------------------|---------------------|
F#|-2---------2---------|-3-3-3-3-3-3-3-3-3-3-|-6---------6---------|
C#|-0-0-0-0-0-0-0-0-0-0-|---------------------|-4-4-4-4-4-4-4-4-4-4-|
    
C#|---------------------|
G#|---------------------|
E |---------------------|
B |-9-----------9-9-9-9-|
F#|-7-----------7-7-7-7-|
C#|---------------------|

[Solo]
C#|----------------|----------------|----------------|
G#|----------------|----------------|----------------|
E |-9--------------|--7-------------|-10-------9-7-9-|
B |-x--------------|--x-------------|--x-------x-x-x-|
F#|-7--------------|--5-------------|--8-------7-5-7-|
C#|----------------|----------------|----------------|

C#|----------------|----------------|--------------------|
G#|----------------|----------------|----12-12-12--------|
E |--5-------------|-10-------------|-14-----------------|
B |--x-------------|--x-------------|--------------------|
F#|--3-------------|--8-------------|--------------------|
C#|----------------|----------------|--------------------|

C#|-----------------------|----------------|-12-10-12----12-10-12-|
G#|----12-13---12-13-15---|-----13---------|----------------------|
E |-14--------------------|----------------|----------------------|
B |-----------------------|----------------|----------------------|
F#|-----------------------|----------------|----------------------|
C#|-----------------------|----------------|----------------------|

C#|-----10--12-13-15---|-------13-12-13----|
G#|--------------------|-------------------|
E |--------------------|-------------------|
B |--------------------|-------------------|
F#|--------------------|-------------------|
C#|--------------------|-------------------|

C#|-17p13-----------------------|---------------------|
G#|------15----------15------15-|-16-15-13---15-13-12-|
E |--------14------14--14--14---|---------------------|
B |----------15--15------15-----|---------------------|
F#|------------17---------------|---------------------|
C#|-----------------------------|---------------------|

C#|-15p12-----------------------|------------15bh-r-14-|
G#|------13----------13------13-|-16-15-13-------------|
E |--------14------14--14--14---|----------------------|
B |----------14--14------14-----|----------------------|
F#|------------15---------------|----------------------|
C#|-----------------------------|----------------------|

C#|-12~~~-1214151412---------|-------12h17p12----------|
G#|-----------------151312~~-|-----13--------13--------|
E |--------------------------|---14------------14------|
B |--------------------------|-14----------------14~~~-|
F#|--------------------------|-------------------------|
C#|--------------------------|-------------------------|

C#|-15---------14---12----|-------------------|-15---14---12---------|
G#|-----------------------|------------12~~~~-|----------------12~~~-|
E |-----------------------|----------12-------|----------------------|
B |-----------------------|--------12---------|----------------------|
F#|-----------------------|------14-----------|----------------------|
C#|-----------------------|-12h15-------------|----------------------|

C#|-------------------|----------------------|-------------------|
G#|------------12~~~~-|-13-12-13-13h15-13-12-|------------12~~~~-|
E |----------12-------|----------------------|----------12-------|
B |--------12---------|----------------------|--------12---------|
F#|------14-----------|----------------------|------14-----------|
C#|-12h15-------------|----------------------|-12h15-------------|

C#|-15---14---12---------|-----------------|-15-----15--------14-|
G#|----------------12~~~-|--13-----15------|---------------------|
E |----------------------|-----------------|---------------------|
B |----------------------|-----------------|---------------------|
F#|----------------------|-----------------|---------------------|
C#|----------------------|-----------------|---------------------|

C#|-12---------------|
G#|------------------|
E |------------------|
B |------------------|
F#|------------------|
C#|------------------|

C#|-------------------|-------------------|-------------------|
G#|-------------------|-------------------|-------------------|
E |-------------------|-5-----------------|-------------------|
B |-------------------|-x-----------------|-------------------|
F#|-2-2--2--2-2--2--2-|-3-----------------|-6-6--6--6-6--6--6-|
C#|-0-0--0--0-0--0--0-|-------------------|-4-4--4--4-4--4--4-|
 
C#|-------------------|
G#|-------------------|
E |-9-----------------|
B |-x-----------------|
F#|-7-----------------|
C#|-------------------|

[Outro]
C#|-------------------|-------------------|
G#|-------------------|-------------------|
E |-------------------|-------------------|
B |-------------------|-.-----------------|
F#|-2-2--2--2-2--2--2-|-2-----------------|
C#|-0-0--0--0-0--0--0-|-0-----------------|


************************************

| x  Dead note
| /  Slide up
| \  Slide down
| p  Pull-off
| r  Release
| h  Hammer-on
| ~  Vibrato

************************************
Suggest correction
comments
print report bad tab
31 comments total. Showing first comments.
+1 reply
guitar_bully 70 Mar 17, 2005 07:00 PM

nice job on the solo

0 reply
INDUSTRIALMETAL 20 Apr 21, 2005 08:00 PM

Great Tab, the solo is Flawless

+4 reply
Rob the Tipton 141 Jul 10, 2005 08:00 PM

|----------------||------------------|-------------|-----------------|
|----------------||------------------|-------------|-----------------|
|-10---9---------||-10---9---7---9---|10--9--------|-----------------|
|-10---9---------||-10---9---7---9---|10--9--------|-----------------|
|--8---7---------||--8---7---5---7---|-8--7--------|-----------------|
|--------000-000-||------------------|------000-000|111-444-111-111-|


You missed a measure in the intro, the rest looks good but the solo seems right on.

guest
You may want to rate the tab now too:
select rating
Wanna post a correction for this tab? Suggest correction