Oops, an error
Loading. Please wait.

Fields Of Haar - Meggido Bass Tab

355 views 1 this week
no commentswrite comment
1 2 3 4 5
please rate
add to favorites
launch autoscroll
font size
0
reset
guitar tuner
Autoscroll
slow
fast
+/-
esc
set tempo
stop
Help us to improve Ultimate-Guitar.com Take our survey!
×
Author
Difficulty
novice
Listen to the song for timing.

Riff 1 
|---------------------------------------------|
|---------------------------------------------|
|0-----3-2------------------------------------| 
|---------------------------------------------| 

Riff 2 
|---------------------------------------------|
|----------------7---5---3---2----------------|
|0-------3------------------------------------|
|---------------------------------------------|



Riff 3 
|---------------------------------------------|
|---------------------------------------------|
|3-------1-------3-------1---3-1--------------|
|---------------------------------------------|



Riff 4 (Let Ring) 

|---------------------------------------------|
|---------------------------------------------|
|0--------------------------------------------|
|---------------------------------------------| 

Riff 5 
|---------------------------------------------|
|---------------------------------------------|
|5-------3-------1-------0--------------------|
|---------------------------------------------|

Riff 6 
|---------------------------------------------|
|---------------------------------------------|
|55555555333333331111111100000000-------------|
|---------------------------------------------|







Song Structure 

Riff 1 x6 
Riff 2 x2 
Riff 3  
Riff 2 x2 
Riff 3 
Riff 1 x4 
Riff 2 x2 
Riff 3 
Riff 2 x2 
Riff 3 
Riff 1 x4 
Riff 2 x2 
Riff 3 
Riff 2 x2 
Riff 3 
Riff 4 
Riff 5 x6
Riff 6 x2 
Riff 5 x6 




Suggest correction
Give kudos to tab author, rate the tab!
1 2 3 4 5
comments
print report bad tab
guest
You may want to rate the tab now too:
select rating
Wanna post a correction for this tab? Suggest correction