Oops, an error
Loading. Please wait.

Inner Sanctum Tab

version 1
version 1

Whole song

Interactive

8,592 views 3 this week
3 commentsread comments
1 2 3 4 5
accurate
x 4
add to favorites
launch autoscroll
font size
0
reset
how to read this tab
guitar tuner
Autoscroll
slow
fast
+/-
esc
set tempo
stop
Help us to improve Ultimate-Guitar.com Take our survey!
×
Author
-------------------------------------------------------------------------------
                             Inner Sanctum - Behemoth
-------------------------------------------------------------------------------
Tabbed by:Greg 

Tuning:Dropped Bb
 
 Song pwns n00bs.

Intro riff: Triplets,and those are 12's and 11's. Repeat this until it stops.
Cb|-------------------------------------------------------------------------|
A#|-------------------------------------------------------------------------|
D|--------------------------------------------------------------------------|
A|--------------------------------------------------------------------------|
E|--12-11-8-----------------------------------------------------------------|
Bb|-12-11-8-----------------------------------------------------------------|
    .. .. .

Riff 1A
Cb|-------------------------------------------------------------------------|
A#|--------*----------------------------------------------------------------|
D|-------7-6----2-----------------------------------------------------------|
A|--0----7-6----2-----------------------------------------------------------|
E|--0----5-4----0-----------------------------------------------------------|
Bb|-0-----------------------------------------------------------------------|

* It's either what I have up there or
|-7---------------------------------------------|
|-6---------------------------------------------|
|-6---------------------------------------------|
|-4---------------------------------------------|

Riff 1B
Cb|-17-18-17-16~------------------------------------------------------------|
A#|---------------15--------------------------------------------------------|
D|--------------------------------------------------------------------------|
A|--------------------------------------------------------------------------|
E|--------------------------------------------------------------------------|
Bb|-------------------------------------------------------------------------|

Riff 2a
Cb|-------------------------------------------------------------------------|
A#|-------------------------------------------------------------------------|
D|--14----13---9---13---9---8-----------------------------------------------|
A|---x-----x---x---x----x---x-----------------------------------------------|
E|--12----11---7---11---7---6-----------------------------------------------|
Bb|----0-0--0-0-0-0--0-0-0-0------------------------------------------------|

Riff 2b
Cb|-------------------------------------------------------------------------|
A#|-------------------------------------------------------------------------|
D|--7------3----------6---7-8-7----3----6-----------------------------------|
A|--x------x----------x---x-x-x----x----x-----------------------------------|
E|--5------1----------4---5-6-5----1----4-----------------------------------|
Bb|-------------------------------------------------------------------------|

Then there's a palm mute open breakdown with this over it:
Cb|-------------------------------------------------------------------------|
A#|-------------------------------------------------------------------------|
D|--------------------------------------------------------------------------|
A|--------------------------------------------------------------------------|
E|--------------------------------------------------------------------------|
Bb|-12-11-8-12-11-8-12-11-8-12-11-8-11-12-----------------------------------|
    .  .  . .   . . .  .  . .  .  . .  . 

After the acoustic solo comes Riff 3 a
Cb|-------------------------------------------------------------------------|
A#|-------------------O-----------------------------------------------------|
D|--------------------------------------------------------------------------|
A|-----------0-8--11--------------------------------------------------------|
E|-----------0-8--11--O-----------------------------------------------------|
Bb|--0-0-0-0-0-8--11--------------------------------------------------------|
     . . . .
  Riff 3b (There are tiny variations in both riffs)
Cb|-------------------------------------------------------------------------|
A#|-----------------------------O-------------------------------------------|
D|----------10---------6-------7--------------------------------------------|
A|--------12--12------8--8---10---------------------------------------------|
E|--11-12-------12--8-----8-9---O-------------------------------------------|
Bb|-------------------------------------------------------------------------|

Solo
Cb|-------------------------------------18-22~-22-18------18-19b-18-18-19-18|
A#|-----------------------------------20------------20--20------------------|
D|---11-------11/15------15/19------19----------------19--------------------|
A|-----12---12-----16--16-----20--20----------------------------------------|
E|--------14---------18---------22------------------------------------------|
Bb|-------------------------------------------------------------------------|

                               TP TP TP TP TP TP TP TP TP TP TP TP TP TP TP 
Cb|---18--------------------------------------------------------------------|
A#|-20--20-19~-15-16---15---------------------------------------------------|
D|-------------------17--15-17-15-17-15-------------------------------------|
A|--------------------------------------19-17-16--------------------16-17-19|
E|-----------------------------------------------18-17-15~--14-16-17--------|
Bb|-------------------------------------------------------------------------|

  TP TP                                                  TP TP TP TP TP TP 
Cb|-------------------------------------------------------------------------|
A#|------16-19-16-15~-15-16-15---15-----------------------------------------|
D|-15-17----------------------17---17-15------------------------------------|
A|---------------------------------------19-17-16-----------------16--17-19-|
E|-----------------------------------------------18-16-15-15-18-15--18------|
Bb|-------------------------------------------------------------------------|

  TP TP TP TP TP TP TP TP TP TP TP TP TP TP TP TP TP TP TP
Cb|-------------18-17--22-20-19---19-----------------18-17~-----------------|
A#|-------16-15-16-15~----------21--21-20-17-16-17-20-----------------------|
D|--17-15-------------------------------------------------------------------|
A|--------------------------------------------------------------------------|
E|--------------------------------------------------------------------------|
Bb|-------------------------------------------------------------------------|
        +

That's thesong. Chances are I messed up the solo pretty badly, but I have the general trend discovered.

| TP tremolo pick
| /  slide up
| \  slide down
| h  hammer-on
| p  pull-off
| ~  vibrato
| +  harmonic
| x  Mute note
===============================================================================
Suggest correction
comments
print report bad tab
3 comments total.
0 reply
Derz 629 wrote on January 9 2008, 04:37 pm

not bad!
4 stars!

0 reply
metalheadblues 196 wrote on August 12 2008, 12:34 am

this song is amazing....really intresting:)
fukkin hail behemoth

+1 reply
primoris morior 10 wrote on August 23 2008, 02:15 pm

tab for piano intro? :)

guest
You may want to rate the tab now too:
select rating
Wanna post a correction for this tab? Suggest correction