Oops, an error
Loading. Please wait.

Lucifer Tab

version 1
version 1

Intro

Whole song

Interactive

3,734 views 15 this week
1 commentread comment
1 2 3 4 5
x 4
add to favorites
launch autoscroll
font size
0
reset
how to read this tab
guitar tuner
Autoscroll
slow
fast
+/-
esc
set tempo
stop
Help us to improve Ultimate-Guitar.com Take our survey!
×
Author
Difficulty
novice
|--------------------------------------------------|
|--------------------------------------------------|
|--------------------------------------------------|
|----6---5----2~~~---------------------------------|
|----4---3----0~~~------------------2~~~~~---------|
|-----------------------------------0~~~~~---------|


Not sure about the solo yet, but this is played through the intro & verses.
Suggest correction
comments
print report bad tab
1 comment total.
0 reply
KreonErebus 10 Aug 05, 2009 01:41 PM

|--------------------------------------------------|
|--------------------------------------------------|
|--------------------------------------------------|
|----6---5-----------------------------------------|
|----4---3----6~~~------------------5~~~~~---------|
|-------------4~~~------------------5~~~~~---------|

guest
You may want to rate the tab now too:
select rating
Wanna post a correction for this tab? Suggest correction