Oops, an error
Loading. Please wait.

Children Of The Broken Hearted Tab

version 2
version 2

Whole song

  • Thought id do it as the other one was a little off and i wanted to learn it.
4 views 1 this week
no commentswrite comment
1 2 3 4 5
3 more votes to show rating
add to favorites
launch autoscroll
font size
0
reset
how to read this tab
guitar tuner
Autoscroll
slow
fast
+/-
esc
set tempo
stop
Help us to improve Ultimate-Guitar.com Take our survey!
×
Author
Difficulty
Tuning
intermediate
C G C F A D
About this tab version
Thought id do it as the other one was a little off and i wanted to learn it. Was this info helpful? Yes No
===========================================================================================
                  Children Of The Broken Hearted - Behind Crimson Eyes
===========================================================================================
Drop C - Put Two Guitars when needed



[Intro] 3/4                                                                 x2 (No A.H at end of 2nd time)
|----------------------------------------------------------------------------|
|----------------------------------------------------------------------------|
|----------------------------------------------------------------------------|
|----------------------------------------------------------------------------|
|-4-----------4-----------3b#~~--4-----------4-----------4-----------3bb#~~--|
|---0-2-3-2-0---0-2-3-2-0----------0-2-3-2-0---0-2-3-2-0---0-2-3-2-0---------|
  * * * * * * * * * * * *  

|----------------------------------------------------------------------------|
|----------------------------------------------------------------------------|
|----------------------------------------------------------------------------|
|----------------------------------------------------------------------------|
|-4-----------4-----------4-----------4--------------------------------------|
|---0-2-3-2-0---0-2-3-2-0---0-2-3-2-0---0-2-3-2-0----------------------------|


Then 0:17
Gtr1                      x2| Gtr2                                         x2
|---------------------------|------------------------------------------------|
|---------------------------|-6-6-6-6-6~~-6-6-6-6-6--------------------------|
|-7-7-7-7-----7-7-7-7/10----|-7-7-7-7-7~~-7-7-7-7-7--------------------------|
|-x-x-x-x-0~~-x-x-x-x/x-----|-7-7-7-7-7~~-7-7-7-7-7--------------------------|
|-5-5-5-5-0~~-5-5-5-5/8-----|-5-5-5-5-5~~-5-5-5-5-5--------------------------|
|---------0~~---------------|------------------------------------------------|




[Verse 1] (fast)
Gtr1              x8| Gtr2                                                 x8
|-------------------|--------------------------------------------------------|
|-------------------|----------------1010-8----------------------------------|
|-------------------|-777-101010-666-----------------------------------------|
|-------------775---|-----tens-----------------------------------------------|
|-555-888-444-------|--------------------------------------------------------|
|-------------------|--------------------------------------------------------|




[Chorus] (Guitar 2 Does 12x14 octaves)
|----------------------------------------------------------------------------|
|----------------------------------------------------------------------------|
|--------------7-7-7-7-7-7-7-7-7-7-7-7---------------7-7-7-7-7-7-7-7-7-7-7-7-|
|-0~~~~~0~~~~~-x-x-x-x-x-x-x-x-x-x-x-x--0~~~~~0~~~~~-x-x-x-x-x-x-x-x-x-x-x-x-|
|-0~~~~~0~~~~~-5-5-5-5-5-5-5-5-5-5-5-5--0~~~~~0~~~~~-5-5-5-5-5-5-5-5-5-5-5-5-|
|-0~~~~~0~~~~~-0-0-0-0-0-0-0-0-0-0-0-0--0~~~~~0~~~~~-0-0-0-0-0-0-0-0-0-0-0-0-|
|
|
"I'll take off your clothes"
Gtr1
|----------------------------------------------------------------------------|
|----------------------------------------------------------------------------|
|----------------------------------------------------------------------------|
|-8--------7--------7-0-8-0-5-0-2-0-3-0-5-0-0-0-3-0-5-0-5-0-3-0-2h3p2p0------|
|-8--(x6)--7--(x6)-----------------------------------------------------------|
|-8--------7-----------------------------------------------------------------|
|Gtr2                                                                         || x2 (Gtr1 follows gtr2 at end
|-8---8-5---5-5---5-5---5----------------------------------------------------|        of second repeat)
|--6-6-6-6-6-6-5-5-5-5-5-5---------------------------------------------------|
|---7-----7-----7-----6------------------------------------------------------|
|----------------------------------------------------------------------------|
|---------------------------0-0~~--0-0-0-0~~--0-0-0-0~~--0-0-0-0~~---0-0~----|
|---------------------------0-0~~--0-0-0-0~~--0-0-0-0~~--0-0-0-0~~---0-0~~---|
^^Not exactly 100% sure on these parts; they're so unclear... But i'm close.


Continuing straight on...
"I will sing you to sleep"            x4| During Gtr 2 Riff                 x2
|---------------------------------------|------------------------------------|
|-------------------4~~~~---------------|------------------------------------|
|-7-7-7-7-7-7-------7b~~~---------------|-7-7-7-7-7-7------------------------|
|-0-0-0-0-0-0-0-------------------------|-0-0-0-0-0-0-0----------------------|
|-0-0-0-0-0-0-0-------------------------|-0-0-0-0-0-0-0----------------------|
|-0-0-0-0-0-0-0-------------------------|-0-0-0-0-0-0-0----------------------|
|
Gtr2 Riff                                                                   x4
|----------------------------------------------------------------------------|
|----------------------------------------------------------------------------|
|----------------------------------------------------------------------------|
|------------8---7---5hp5\3h5p3\2h3p3----------------------------------------|
|-\\\\-----------------------------------------------------------------------|
|-\\\\---0-0---0---0---------------------------------------------------------|




[Chorus 2] (Guitar 2 Does 12x14 octaves again)
|----------------------------------------------------------------------------|
|----------------------------------------------------------------------------|
|--------------171717171717171717171717--------------191919191919191919191919|
|-0~~~~~0~~~~~-x-x-x-x-x-x-x-x-x-x-x-x--0~~~~~0~~~~~-x-x-x-x-x-x-x-x-x-x-x-x-|
|-0~~~~~0~~~~~-151515151515151515151515-0~~~~~0~~~~~-171717171717171717171717|
|-0~~~~~0~~~~~-0-0-0-0-0-0-0-0-0-0-0-0--0~~~~~0~~~~~-0-0-0-0-0-0-0-0-0-0-0-0-|
|
|
"I'll take off your clothes"
Gtr1
|---------------------------------------------------------------------------|
|---------------------------------------------------------------------------|
|---------------------------------------------------------------------------|
|-8--------7--------7-0-8-0-5-0-2-0-3-0-5-0-0-0-3-0-5-0-5-0-3-0-2h3p2p0-----|
|-8--(x6)--7--(x6)----------------------------------------------------------|
|-8--------7----------------------------------------------------------------|
|Gtr2                                                                        || x2 (Gtr1 follows gtr2 at end
|-8---8-5---5-5---5-5---5---------------------------------------------------|        of second repeat)
|--6-6-6-6-6-6-5-5-5-5-5-5--------------------------------------------------|
|---7-----7-----7-----6-----------------------------------------------------|
|---------------------------------------------------------------------------|
|---------------------------0-0~~--0-0-0-0~~--0-0-0-0~~--0-0-0-0~~---0-0~---|
|---------------------------0-0~~--0-0-0-0~~--0-0-0-0~~--0-0-0-0~~---0-0~~--|




[Brekadown]
|----------------------------------------------------------------------------|
|----------------------------------------------------------------------------|
|----------------------------------------------------------------------------|
|----------------------------------------------------------------------------|
|-0-0---0---0-0---0---0---0-0---0---0-0-0-0---0---0-0---0---0-0---0---0------|
|-0-0---0---0-0---0---0---0-0---0---0-0-0-0---0---0-0---0---0-0---0---0------|
|
"Qui-et-ly Weep"              "Ne- Ver Trustt"
|----------------------------------------------------------------------------|
|-------------------------4~~~-----------------------------------------------|
|-7--7--7--7--------------7b~~-----------------------------------------------|
|-0--0--0--0-----------------------------------------------------------------|
|-0--0--0--0---0---0-0-0-------0-0----0--------------------------------------|
|-0--0--0--0---0---0-0-0-------0-0----0--14\\\\\\----------------------------|




[Outro]
|----------------------------------------------------------------------------|
|-4~~------------4~~~--------------------------------------------------------|
|-7b~~-----------7b~~--------------------------------------------------------|
|----------------------------------------------------------------------------|
|------0--0--00-------0--0------0-7-8-7-5-2-3-0------------------------------|
|------0--0--00-------0--0------0-7-8-7-5-2-3-0------------------------------|

|----------------------------------------------------------------------------|
|----------------------------------------------------------------------------|
|----------------------------------------------------------------------------|
|----------------------------------------------------------------------------|
|-R----0--0--00-------0--0------0-7-8-7-5-2-3-0------------------------------|
|------0--0--00-------0--0------0-7-8-7-5-2-3-0------------------------------|
Basically play that a few times and end on an open palm muted chug!

Thanks.
Suggest correction
Give kudos to tab author, rate the tab!
1 2 3 4 5
comments
print report bad tab
guest
You may want to rate the tab now too:
select rating
Wanna post a correction for this tab? Suggest correction