Oops, an error
Loading. Please wait.

Preface In Memory Of Bass Tab

71 views 1 this week
no commentswrite comment
1 2 3 4 5
3 more votes to show rating
add to favorites
launch autoscroll
font size
0
reset
guitar tuner
Autoscroll
slow
fast
+/-
esc
set tempo
stop
Help us to improve Ultimate-Guitar.com Take our survey!
×
bass introduction x1
G|------------------------------------------------------------|
D|---2-22-222-2-22-2-5-------------------5--------------------|
A|---------------------3-5-55-555-5-55-5---5------------------|
E|------------------------------------------------------------|

verse- x4
G|------------------------------------------------------------------------|
D|---2-22-222-2-22-2-5-------------------5--------------------------------|
A|---------------------3-5-55-555-5-55-5---5-3-33-3-3-33-3-3-33-3-3-33-5--|
E|------------------------------------------------------------------------|

chorus x2
G|----------------------------------------------------------------------|
D|---22222222222222-5------------------5--------------------------------|
A|--------------------3-55555555555555---5-3-33-3-3-33-3-3-33-3-3-33-5--|
E|----------------------------------------------------------------------|

verse- x3
G|------------------------------------------------------------------------|
D|---2-22-222-2-22-2-5-------------------5--------------------------------|
A|---------------------3-5-55-555-5-55-5---5-3-33-3-3-33-3-3-33-3-3-33-5--|
E|------------------------------------------------------------------------|

pre-chorus- x1
G|-----------------------------------------------------------------------|
D|---2-22-222-2-22-2-5-------------------5-------------------------------|
A|---------------------3-5-55-555-5-55-5---5-3-33-3-3-33-3-3-33-3-3--35--|
E|-----------------------------------------------------------------------|

chorus x4
G|----------------------------------------------------------------------|
D|---22222222222222-5------------------5--------------------------------|
A|--------------------3-55555555555555---5-3-33-3-3-33-3-3-33-3-3-33-5--|
E|----------------------------------------------------------------------|

outro x1
G|------------------------------------------------------------|
D|---2-22-222-2-22-2-5-------------------5--------------------|
A|---------------------3-5-55-555-5-55-5---5------------------|
E|------------------------------------------------------------|


i'm pretty damn sure about this
thanks
Suggest correction
Give kudos to tab author, rate the tab!
1 2 3 4 5
comments
print report bad tab
guest
You may want to rate the tab now too:
select rating
Wanna post a correction for this tab? Suggest correction