Oops, an error
Loading. Please wait.

Nothing Save The Power Theyre Given Bass Tab

version 1
version 1

Whole song

Interactive

1,484 views 6 this week
no commentswrite comment
1 2 3 4 5
3 more votes to show rating
add to favorites
launch autoscroll
font size
0
reset
guitar tuner
Autoscroll
slow
fast
+/-
esc
set tempo
stop
Help us to improve Ultimate-Guitar.com Take our survey!
×
Author
Difficulty
Tuning
novice
C G C F A D
Tuning : CGCF

-------------------------------------------------------------------------------------|
-------------------------------------------------------------------------------------|
-------------------------------------------------------------------------------------|
7-7-7-7-7-7-7-7-7-7-7-7-7-7-7-7-2-2-2-2-2-2-2-3-3-3-3-3-3-3-3-3----------------------|
X4

-------------------------------------------------------------------------------------|
-------------------------------------------------------------------------------------|
-------------------------------------------------------------------------------------|
7--7/10--5--3--3--7--7/10--5--3--3---------------------------------------------------|

-------------------------------------------------------------------------------------|
-------------------------------------------------------------------------------------|
-------------------------------------------------------------------------------------|
7-7-7-7-7-7-7------------------------------------------------------------------------|
X16

-------------------------------------------------------------------------------------|
-------------------------------------------------------------------------------------|
-------------------------------------------------------------------------------------|
7-7-7-7-7-7-7--5-5-5-5-5-5-5--3-3-3-3-3-3-3--3-3-3-3-3-3-3---------------------------|
X4

-------------------------------------------------------------------------------------|
-------------------------------------------------------------------------------------|
--------10-10-8-8-8-8-8-7-7-7--------------------------------------------------------|
7-7-7--------------------------------------------------------------------------------|

-------------------------------------------------------------------------------------|
-------------------------------------------------------------------------------------|
-------------------------------------------------------------------------------------|
7-7-7-7-7-7-7-7-7-7-7-7-7-7-7-7-2-2-2-2-2-2-2-3-3-3-3-3-3-3-3-3----------------------|
X4

7
Suggest correction
Give kudos to tab author, rate the tab!
1 2 3 4 5
comments
print report bad tab
guest
You may want to rate the tab now too:
select rating
Wanna post a correction for this tab? Suggest correction