Oops, an error
Loading. Please wait.

Nothing Save The Power Theyre Given tab

version 1
version 1

Whole song

Interactive

11,190 views 15 this week
no commentswrite comment
1 2 3 4 5
x 10
add to favorites
×
Save as Personal and add changes to this tab that will be seen only by you. Learn more ›
×
You can save this tab as Personal to edit and correct it or add notes. All changes will be seen only by you. Learn more »
launch autoscroll
font size
0
reset
how to read this tab
guitar tuner
edit
Autoscroll
slow
fast
+/-
esc
set tempo
stop
Band: Being As An Ocean
Song: Nothing, Save The Power They're Given
Album: Dear G-d...
Tabbed by Tyler Ross
Submitted By: Being As An Ocean (AsAnOcean@gmail.com)

tuning C G C F A D

Intro/1st guitar:
|-------------------------------------------------------------|
|-------------------------------------------------------------| 4x
|-0-0-0~---x--12--12--x--12--12--x--12--12--12----------------|
|-9-9-9h10-x--10--10--x--10--10--x--10--10--10----------------|
|-0-0-0~---x--12--12--x--12--12--x--12--12--12----------------|
|-------------------------------------------------------------|


Verse/1st guitar:
|-------------------------------------------------------------|
|-------------------------------------------------------------| 8x
|-0-0-0~---x--12--12--x--12--12--x--12--12--12----------------|
|-9-9-9h10-x--10--10--x--10--10--x--10--10--10----------------|
|-0-0-0~---x--12--12--x--12--12--x--12--12--12----------------|
|-------------------------------------------------------------|

Verse/2nd guitar:
|-------------------------------------------------------------|
|-------------------------------------------------------------| cont.
|-------------------------------------------------------------| 
|-------------------------------------------------------------|
|-------------------------------------------------------------|
|-7-7-7-7-7-7-7-7-7-7-7-7-7-7-7--x-x--------------------------|

Verse/2nd guitar:
|-------------------------------------------------------------|
|-------------------------------------------------------------| 4x
|-------------------------------------------------------------| 
|-------------------------------------------------------------|
|-------------------------------------------------------------|
|-2--2-2--2-2-3--3-3-3--3-3-3---------------------------------|

Pre-Chorus/1st guitar:
|-------------------------------------------------------------|
|-------------------------------------------------------------| cont.
|-------------12--------------------12------------------------| 
|----10----------10-----------10-------10----10---------------|
|-12----12-12-------12-12--12----12-------12------------------|
|-------------------------------------------------------------|

|--------------------------(palm-mute last time)--------------|
|--------------------------|-------|-0------------------------| 2x
|-------------12-----------|-------|---12---------------------| 
|-------10-------10-----------10-------------10---------------|
|-12-12----12-------12-12--12----12-------12------------------|
|-------------------------------------------------------------|


Pre-Chorus/2nd guitar:
|-------------------------------------------------------------|
|-------------------------------------------------------------| cont.
|-------------------------------------------------------------| 
|---------10--------------------------------------------------|
|---7--------7--------7---7h8---8-----------------------------|
|-7---7-7------7-7--7---7-----7-------------------------------|

|-------------------------------------------------------------|
|-------------------------------------------------------------| cont.
|-------------------------------------------------------------| 
|---------9---------------------------------------------------|
|---5--------5--------5---5h7---7-----------------------------|
|-5---5-5------5-5--5---5-----5-------------------------------|

|-------------------------------------------------------------|
|-------------------------------------------------------------| cont.
|-------------------------------------------------------------| 
|---------7---------------7-----------------------------------|
|---3--------3--------3-----3---3-----------------------------|
|-3---3-3------3-3--3---3-----3-------------------------------|

|-------------------------------------------------------------|
|-------------------------------------------------------------| 2x
|-------------------------------------------------------------| 
|---------7------------10-------9-----------------------------|
|---3--------3-------7------5---------------------------------|
|-3---3-3------3---7------5---5-------------------------------|

Chorus/Both guitars:
|-------------------------------------------------------------| 
|----0--0--0--0--0--0--0----0--0--0--0--0--0--0---------------| cont.
|----12-12-12-12-12-12-12---12-12-12-12-12-12-12--------------|
|----10-10-10-10-10-10-10---10-10-10-10-10-10-10--------------|
|----12-12-12-12-12-12-12---12-12-12-12-12-12-12--------------|
|-------------------------------------------------------------|

|-------------------------------------------------------------|
|----0--0--0--0--0--0--0-------------0------------------------| 4x
|----12-12-12-12-12-12-12--------------12---------------------|
|----10-10-10-10-10-10-10------10------------10---------------|
|----12-12-12-12-12-12-12---12----12------12------------------|
|-------------------------------------------------------------|

Chorus/1st guitar:
|-------------------------------------------------------------| 
|----0--0--0--0--0--0--0----0--0--0--0--0--0--0---------------| cont.
|----12-12-12-12-12-12-12---12-12-12-12-12-12-12--------------|
|----10-10-10-10-10-10-10---10-10-10-10-10-10-10--------------|
|----12-12-12-12-12-12-12---12-12-12-12-12-12-12--------------|
|-------------------------------------------------------------|

|-------------------------------------------------------------|
|----0--0--0--0--0--0--0-------------0------------------------| 4x
|----12-12-12-12-12-12-12--------------12---------------------|
|----10-10-10-10-10-10-10------10------------10---------------|
|----12-12-12-12-12-12-12---12----12------12------------------|
|-------------------------------------------------------------|

Chorus/2nd guitar:
|-------------------------------------------------------------| 
|-------------------------------------------------------------| cont.
|-------------------------------------------------------------|
|----10-10-10-10-10-10-10---9--9--9--9--9--9--9---------------|
|----7--7--7--7--7--7--7----5--5--5--5--5--5--5---------------|
|----7--7--7--7--7--7--7----5--5--5--5--5--5--5---------------|

|-------------------------------------------------------------|
|-------------------------------------------------------------| 2x
|----7--7--7--7--7--7--7---------------12---------------------|
|----3--3--3--3--3--3--3-------10------------10---------------|
|----3--3--3--3--3--3--3----12----12------12------------------|
|-------------------------------------------------------------|

Chorus/2nd guitar:
|-------------------------------------------------------------| 
|-------------------------------------------------------------| cont.
|----9--9--9--9--9--9--9----7--7--7--7--7--7--7---------------|
|----10-10-10-10-10-10-10---9--9--9--9--9--9--9---------------|
|----7--7--7--7--7--7--7----5--5--5--5--5--5--5---------------|
|----7--7--7--7--7--7--7----5--5--5--5--5--5--5---------------|

|-------------------------------------------------------------|
|----5--5--5--5--5--5--5-------------0------------------------| 2x
|----7--7--7--7--7--7--7---------------12---------------------|
|----3--3--3--3--3--3--3-------10------------10---------------|
|----3--3--3--3--3--3--3----12----12------12------------------|
|-------------------------------------------------------------|

Post-Chorus/1st guitar:
|-------------------------------------------------------------|
|-------------------------------------------------------------| 
|-2-2-2-12--12-12-10--10-10-10-10p9-9-9-----------------------|
|-x-x-x-x---x--x--x---x--x--x--x----x-x-----------------------|
|-2-2-2-10--10-10-8---8--8--8--8-p7-7-7-----------------------|
|-------------------------------------------------------------|

Post-Chorus/2nd guitar:
|-------------------------------------------------------------|
|-------------------------------------------------------------| 
|-2-2-2-12--12-12-10--10-10-10-10-10-10-10--------------------|
|-x-x-x-x---x--x--x---x--x--x--x--x--x--x---------------------|
|-2-2-2-10--10-10-8---8--8--8--8--8--8--8---------------------|
|-------------------------------------------------------------|

Verse/1st guitar:
|-------------------------------------------------------------|
|-------------------------------------------------------------| 8x
|-0-0-0~---x--12--12--x--12--12--x--12--12--12----------------|
|-9-9-9h10-x--10--10--x--10--10--x--10--10--10----------------|
|-0-0-0~---x--12--12--x--12--12--x--12--12--12----------------|
|-------------------------------------------------------------|

Verse/2nd guitar:
|-------------------------------------------------------------|
|-------------------------------------------------------------| cont.
|-------------------------------------------------------------| 
|-------------------------------------------------------------|
|-------------------------------------------------------------|
|-7-7-7-7-7-7-7-7-7-7-7-7-7-7-7--x-x--------------------------|

Verse/2nd guitar:
|-------------------------------------------------------------|
|-------------------------------------------------------------| 4x
|-------------------------------------------------------------| 
|-------------------------------------------------------------|
|-------------------------------------------------------------|
|-2--2-2--2-2-3--3-3-3--3-3-3---------------------------------|

Outro/1st guitar:
|-------------------------------------------------------------|
|-------------------------------------------------------------| 7x
|-------------------12-------12-------12----------------------| 
|-9h10-----------------10-------10-------10-------------------|
|-(0-first time)-0--------0--------0--------0-0---------------|
|-------------------------------------------------------------|

Outro/2nd guitar:
|-------------------------------------------------------------|
|-------------------------------------------------------------| 7x
|-------------------------------------------------------------| 
|-9h10p9----9h10------(10h12-12~ last time)-------------------|
|--------10~--------------------------------------------------|
|-------------------------------------------------------------|

Outro/1st guitar:
|-------------------------------------------------------------|
|-------------------------------------------------------------| 
|-------------12----------12----------------------------------| 
|----10----------10----------10----10~------------------------|
|-12----12-12-------12-12-------12----------------------------|
|-------------------------------------------------------------|

Outro/2nd guitar:
|-------------------------------------------------------------|
|-------------------------------------------------------------| 
|-9h10p9---------------------12-------------------------------| 
|--------10------------10-------10----10~---------------------|
|-----------10p8h10h12----12-------12-------------------------|
|-------------------------------------------------------------|

            
            
Suggest correction
Creating personal tab
Creating personal tab
You can edit any tab online and save it as your Personal.

You can edit, replace or remove any tab part or add personal notes – all changes will be seen only by you.

Personal tabs can be accessed anytime from any device, even offline.
Learn more »
comments
print report bad tab
guest
Wanna post a correction for this tab? Suggest correction