Oops, an error
Loading. Please wait.

Salute E Vita Tab

version 1
version 1

Whole song

Interactive

11,598 views 18 this week
no commentswrite comment
1 2 3 4 5
x 10
add to favorites
launch autoscroll
font size
0
reset
how to read this tab
guitar tuner
×
Best way to learn
"Salute E Vita"
Autoscroll
slow
fast
+/-
esc
set tempo
stop
Tuning
C G C F A D
Band: Being As An Ocean
Song: Salute e Vita
Album: Dear G-d...
Tabbed by Tyler Ross
Edited by Juan Ruano
Submitted By: Being As An Ocean (AsAnOcean@gmail.com)

tuning C G C F A D

 Intro/1st guitar (Delay: High Feedback):
D|-------------------------------------------------------------|
A|-------------------------------------------------------------| cont.
F|-14~~--------------------------------------------------------|
C|-10~~--------------------------------------------------------|
G|-12~~--------------------------------------------------------|
C|-------------------------------------------------------------|

 Intro/1st guitar (Delay: High Feedback):
D|-------------------------------------------------------------|
A|-------------------------------------------------------------| 4x
F|-12~~-----------12~~-----------------------------------------|
C|-10~~-----------10~~-----------------------------------------|
G|-7~~------------8~~------------------------------------------|
C|-------------------------------------------------------------|

 Intro/2nd guitar:
D|-------------------------------------------------------------|
A|-------------------------------------------------------------| cont.
F|-------------------------------------------------------------|
C|-10-10-10-10-10-10-10-10-9-9-9-9-9-9-9-xx--------------------|
G|-7--7--7--7--7--7--7--7--7-7-7-7-7-7-7-xx--------------------|
C|-7--7--7--7--7--7--7--7--7-7-7-7-7-7-7-xx--------------------|

 Intro/2nd guitar:
D|-------------------------------------------------------------|
A|-------------------------------------------------------------| 4x
F|-------------------------------------------------------------| 
C|-5--5-5--5-5-7--7-7-7-7-7-7-7--------------------------------|
G|-2--2-2--2-2-3--3-3-3-3-3-3-3--------------------------------|
C|-2--2-2--2-2-3--3-3-3-3-3-3-3--------------------------------|

 Verse/1st guitar (Delay: High Feedback):
D|-------------------------------------------------------------|
A|-------------------------------------------------------------| cont.
F|-14~~--------------------------------------------------------|
C|-10~~--------------------------------------------------------|
G|-12~~--------------------------------------------------------|
C|-------------------------------------------------------------|

 Verse/1st guitar (Delay: High Feedback):
D|-------------------------------------------------------------|
A|-------------------------------------------------------------| 4x
F|-12~~-----------12~~------------------------(9h10p9----------|
C|-10~~-----------10~~--------------------------------10p9)----|
G|-7~~------------8~~------------------------------------------|
C|-------------------------------------------------------------|

 Verse/2nd guitar:
D|-------------------------------------------------------------|
A|-------------------------------------------------------------| cont.
F|-------------------------------------------------------------|
C|-10-10-10-10-10-10-10-10-9-9-9-9-9-9-9-xx--------------------|
G|-7--7--7--7--7--7--7--7--7-7-7-7-7-7-7-xx--------------------|
C|-7--7--7--7--7--7--7--7--7-7-7-7-7-7-7-xx--------------------|

 Verse/2nd guitar:
D|-------------------------------------------------------------|
A|-------------------------------------------------------------| 4x
F|-------------------------------------------------------------| 
C|-5--5-5--5-5-7--7-7-7-7-7-7-7--------------------------------|
G|-2--2-2--2-2-3--3-3-3-3-3-3-3--------------------------------|
C|-2--2-2--2-2-3--3-3-3-3-3-3-3--------------------------------|

 Pre-Chorus/1st guitar:
D|-------------------------------------------------------------|
A|-------------------------------------------------------------|
F|-------------------------------------------------------------| 
C|---10--------------------------------------------------------|
G|------7---7h8---8-7h8---7/8-7---7----------------------------|
C|-7------7-----7-------7-------7------------------------------|

D|-------------------------------------------------------------|
A|-------------------------------------------------------------|
F|-------------------------------------------------------------| 
C|-------9-----------------------------------------------------|
G|---5------5---5---5h7---5/7-5--------------------------------|
C|-5---5------5---5-----5--------------------------------------|

D|-------------------------------------------------------------|
A|-------------------------------------------------------------| 
F|-------------------------------------------------------------| 
C|-x-x-x--x-5~~------------------------------------------------|
G|-x-x-x--x-3~~------------------------------------------------|
C|-x-x-x--x-3~~------------------------------------------------|

 Chorus/1st guitar:
D|-------------------------------------------------------------|
A|-------------------------------------------------------------| cont.
F|-------------------------------------------------------------| 
C|---10--------------------------------------------------------|
G|------7---7h8---8-7h8---7/8-7---7----------------------------|
C|-7------7-----7-------7-------7------------------------------|

D|-------------------------------------------------------------|
A|-------------------------------------------------------------| cont.
F|-------------------------------------------------------------| 
C|-------9-----------------------------------------------------|
G|---5------5---5---5h7---5/7-5--------------------------------|
C|-5---5------5---5-----5--------------------------------------|

D|-------------------------------------------------------------|
A|-----------------------------5-------------------------------| cont.
F|---------------4h5p4-----5-----5-----------------------------| 
C|-x-x-x--x-5----------5/7---7-----7---------------------------|
G|-x-x-x--x-3--------------------------------------------------|
C|-x-x-x--x-3--------------------------------------------------|

D|-------------------------------------------------------------|
A|-----------------------------8-------------------------------| 1x
F|---------------4h5p4-----5-----5---5-------------------------| 
C|-x-x-x--x-5----------5/7---7-----7---------------------------|
G|-x-x-x--x-3--------------------------------------------------|
C|-x-x-x--x-3--------------------------------------------------|

D|-------------------------------------------------------------|
A|-------------------------------------------------------------| cont.
F|-------------------------------------------------------------| 
C|---10--------------------------------------------------------|
G|------7---7h8---8-7h8---7/8-7---7----------------------------|
C|-7------7-----7-------7-------7------------------------------|

D|-------------------------------------------------------------|
A|-------------------------------------------------------------| cont.
F|-------------------------------------------------------------| 
C|-------9-----------------------------------------------------|
G|---5------5---5---5h7---5/7-5--------------------------------|
C|-5---5------5---5-----5--------------------------------------|

D|-------------------------------------------------------------|
A|-----------------------------5-------------------------------| cont.
F|---------------4h5p4-----5-----5---5-------------------------| 
C|-x-x-x--x-5~~--------5/7---7-----7---------------------------|
G|-x-x-x--x-3~~------------------------------------------------|
C|-x-x-x--x-3~~------------------------------------------------|

D|-------------------------------------------------------------|
A|-------------------------------------------------------------| 1x
F|-------------------------------------------------------------| 
C|----------------------7-7-7-7-7-7-7-7------------------------|
G|----------------------5-5-5-5-5-5-5-5------------------------|
C|----------------------5-5-5-5-5-5-5-5------------------------|

 Chorus/2nd guitar:
D|-------------------------------------------------------------|
A|-------------------------------------------------------------| cont.
F|-------------------------------------------------------------| 
C|---10--------------------------------------------------------|
G|------7---7h8---8-7h8---7/8-7---7----------------------------|
C|-7------7-----7-------7-------7------------------------------|

D|-------------------------------------------------------------|
A|-------------------------------------------------------------| cont.
F|-------------------------------------------------------------| 
C|-------9-----------------------------------------------------|
G|---5------5---5---5h7---5/7-5--------------------------------|
C|-5---5------5---5-----5--------------------------------------|

D|-------------------------------------------------------------|
A|-------------------------------------------------------------| cont.
F|-------------------------------------------------------------| 
C|-x-x-x--x-5--------------------------------------------------|
G|-x-x-x--x-3--------------------------------------------------|
C|-x-x-x--x-3--------------------------------------------------|

D|-------------------------------------------------------------|
A|-------------------------------------------------------------| 1x
F|-------------------------------------------------------------| 
C|-x-x-x--x-5--------------------------------------------------|
G|-x-x-x--x-3--------------------------------------------------|
C|-x-x-x--x-3--------------------------------------------------|

D|-------------------------------------------------------------|
A|-------------------------------------------------------------| cont.
F|-------------------------------------------------------------| 
C|---10--------------------------------------------------------|
G|------7---7h8---8-7h8---7/8-7---7----------------------------|
C|-7------7-----7-------7-------7------------------------------|

D|-------------------------------------------------------------|
A|-------------------------------------------------------------| cont.
F|-------------------------------------------------------------| 
C|-------9-----------------------------------------------------|
G|---5------5---5---5h7---5/7-5--------------------------------|
C|-5---5------5---5-----5--------------------------------------|

D|-------------------------------------------------------------|
A|-------------------------------------------------------------| cont.
F|-------------------------------------------------------------| 
C|-x-x-x--x-5~~------------------------------------------------|
G|-x-x-x--x-3~~------------------------------------------------|
C|-x-x-x--x-3~~------------------------------------------------|

D|-------------------------------------------------------------|
A|-------------------------------------------------------------| 1x
F|-------------------------------------------------------------| 
C|----------------------7-7-7-7-7-7-7-7------------------------|
G|----------------------5-5-5-5-5-5-5-5------------------------|
C|----------------------5-5-5-5-5-5-5-5------------------------|

 Verse/1st guitar (Delay: High Feedback):
D|-------------------------------------------------------------|
A|-------------------------------------------------------------| cont.
F|-14~~--------------------------------------------------------|
C|-10~~--------------------------------------------------------|
G|-12~~--------------------------------------------------------|
C|-------------------------------------------------------------|

 Verse/1st guitar (Delay: High Feedback):
D|-------------------------------------------------------------|
A|-------------------------------------------------------------| 4x
F|-12~~-----------12~~------------------------(9h10p9----------|
C|-10~~-----------10~~--------------------------------10p9)----|
G|-7~~------------8~~------------------------------------------|
C|-------------------------------------------------------------|

 Verse/2nd guitar:
D|-------------------------------------------------------------|
A|-------------------------------------------------------------| cont.
F|-------------------------------------------------------------|
C|-10-10-10-10-10-10-10-10-9-9-9-9-9-9-9-xx--------------------|
G|-7--7--7--7--7--7--7--7--7-7-7-7-7-7-7-xx--------------------|
C|-7--7--7--7--7--7--7--7--7-7-7-7-7-7-7-xx--------------------|

 Verse/2nd guitar:
D|-------------------------------------------------------------|
A|-------------------------------------------------------------| 4x
F|-------------------------------------------------------------| 
C|-5--5-5--5-5-7--7-7-7-7-7-7-7--------------------------------|
G|-2--2-2--2-2-3--3-3-3-3-3-3-3--------------------------------|
C|-2--2-2--2-2-3--3-3-3-3-3-3-3--------------------------------|

 Post-Verse/Both guitars:
D|-------------------------------------------------------------|
A|-------------------------------------------------------------| 4x
F|-------------------------------------------------------------|
C|-10---10---10---10----0-5---5----0---7----0------------------|
G|-x----x----x----x-----0-x---x----0---x----0------------------|
C|-7----7----7----7-----0-2---2----0---3----0------------------|

 Bridge/Both guitars:
D|-------------------------------------------------------------|
A|-------------------------------------------------------------| 10x
F|-------------------------------------------------------------|
C|-10---10---10---10----0-5---5----0---7----0------------------|
G|-x----x----x----x-----0-x---x----0---x----0------------------|
C|-7----7----7----7-----0-2---2----0---3----0------------------|

 Verse/1st guitar (Delay: High Feedback):
D|-------------------------------------------------------------|
A|-------------------------------------------------------------| cont.
F|-14~~--------------------------------------------------------|
C|-10~~--------------------------------------------------------|
G|-12~~--------------------------------------------------------|
C|-------------------------------------------------------------|

 Verse/1st guitar (Delay: High Feedback):
D|-------------------------------------------------------------|
A|-------------------------------------------------------------| 4x
F|-12~~-----------12~~------------------------(9h10p9----------|
C|-10~~-----------10~~--------------------------------10p9)----|
G|-7~~------------8~~------------------------------------------|
C|-------------------------------------------------------------|

 Verse/2nd guitar:
D|-------------------------------------------------------------|
A|-------------------------------------------------------------| cont.
F|-------------------------------------------------------------|
C|-10-10-10-10-10-10-10-10-9-9-9-9-9-9-9-xx--------------------|
G|-7--7--7--7--7--7--7--7--7-7-7-7-7-7-7-xx--------------------|
C|-7--7--7--7--7--7--7--7--7-7-7-7-7-7-7-xx--------------------|

 Verse/2nd guitar:
D|-------------------------------------------------------------|
A|-------------------------------------------------------------| 4x
F|-------------------------------------------------------------| 
C|-5--5-5--5-5-7--7-7-7-7-7-7-7--------------------------------|
G|-2--2-2--2-2-3--3-3-3-3-3-3-3--------------------------------|
C|-2--2-2--2-2-3--3-3-3-3-3-3-3--------------------------------|


 Outro/1st guitar:
D|-------------------------------------------------------------|
A|-------------------------------------------------------------| cont.
F|-------------------------------------------------------------| 
C|-7--7---7-7-7-9--9---9-9-9-----------------------------------|
G|-3--3---3-3-3-5--5---5-5-5-----------------------------------|
C|-3--3---3-3-3-5--5---5-5-5-----------------------------------|

 Outro/1st guitar:
D|-------------------------------------------------------------|
A|-------------------------------------------------------------| 8x
F|-------------------------------------------------------------| 
C|-10---10---10-10-10-10--10-10-10-10-10-10--------------------|
G|-7----7----7--7--7--7---7--7--7--7--7--7---------------------|
C|-7----7----7--7--7--7---7--7--7--7--7--7---------------------|

 Outro/2nd guitar:
D|----------------------|---------------------|
A|----------------------|---------------------| 8x
F|-----------12---------|---------------------| 
C|-------10------9---10-|(10)-----------------|
G|---12-----------------|---------------------|
C|----------------------|---------------------|
Suggest correction
comments
print report bad tab
guest
You may want to rate the tab now too:
select rating
Wanna post a correction for this tab? Suggest correction