Oops, an error
Loading. Please wait.

Nantes Tab

version 1
version 1

Whole song

Interactive

by Beirut
21,747 views 15 this week
1 commentread comment
1 2 3 4 5
x 3
add to favorites
launch autoscroll
font size
0
reset
how to read this tab
guitar tuner
×
Best way to learn
"Nantes"
Autoscroll
slow
fast
+/-
esc
set tempo
stop
Author
Tuning
Capo
E A D G B E
6th fret
Nantes ~ Beirut

You can just use a pick for this song, but it's pretty fun to use your middle finger to 
strings while playing with a pick simultaneously.

Intro:

     Am            G          C
e|------5------5------3----3-----3-----3------3---3---|
B|------5------5------3----3-----5-----5------5---5---|
G|------5------5------4----4-----5-----5------5---5---|
D|---7-------7---7-5-------------5-----5------5---5---|
A|----------------------------3------3-----3----------|
E|---------------------------------------5------------|

 slowly run your pick up the chord to hit the notes quickly but individually
e|---5-----5-5--5-5--3-----3-3--3-3------3---3-3--3---3------3-3--3-------|
B|--------5--5----5-------3--3----3---------5--5----5-------5--5----5-----|
G|-------5--------5------4--------4--------5--------5------5--------5-----|
D|---7--7-------7--7-5--5-------5---5-----5---------5-----5---------5-----|
A|------------------------------------3--3--------3---3--3--------3---3---|
E|------------------------------------------------------------------------|

 Alternative chords:
     Am    G     C
e|---5-----7-----8---|
B|---5-----8-----8---|
G|---5-----7-----9---|
D|---7-----9-----10--|
A|---------10--------|
E|-------------------|

 Horn part:
e|----------------------------------------------------|
B|------------5-----------5--8--5--------8--5---------|
G|------5--7--------5--7-----------7--5--------7--5---|
D|---7-----------7------------------------------------|
A|----------------------------------------------------|
E|----------------------------------------------------|

 Violin part (same time as horn)
e|--------------------------------|
B|---6-5~~~-------8--5------5-----|
G|----------5h7--------7----------|
D|--------------------------------|
A|--------------------------------|
E|--------------------------------|

 Accordion part during some singing
e|-----------------------------------------------------------------8-------|
B|-------5-----5---------8-----8---8------8------8---8------8--------8-----|
G|-----5-----5-----5---7-----7---7------9------9---9------9------9-----9---|
D|---7-----7-----7---9-----9---------10-----10---------10-----10-----------|
A|-------------------------------------------------------------------------|
E|-------------------------------------------------------------------------|

Bassline:
G|--------------------------------------------------|
D|--------------------------------------------------|
A|---0-------0---2-------2--3-------2---3-------3---|
E|-------0-0---0-----3-3--------3-3---3-----3-3-----|

you can play it an octave up if it's too deep.
Suggest correction
Give kudos to tab author, rate the tab!
1 2 3 4 5
comments
print report bad tab
1 comment total.
0 reply
captainpanic 10 Jul 20, 2009 12:23 PM

Capo VI

guest
You may want to rate the tab now too:
select rating
Wanna post a correction for this tab? Suggest correction