Oops, an error
Loading. Please wait.

Postcards From Italy Tab

version 1
version 1

Whole song

Interactive

100,166 views 69 this week
7 commentsread comments
1 2 3 4 5
x 30
add to favorites
launch autoscroll
font size
0
reset
how to read this tab
guitar tuner
Autoscroll
slow
fast
+/-
esc
set tempo
stop
Help us to improve Ultimate-Guitar.com Take our survey!
×
Author
Difficulty
Tuning
Capo
novice
E A D G B E
3rd fret
[Part 1]

Repeat over and over:

    D
e|--0h2--2-2-2---0h2--2-2-2--|--0h2--2-2-2---3-2-0-2--|
B|--3----3-3-3---3----3-3-3--|--3----3-3-3---3-3-3-3--|
G|--2----2-2-2---2----2-2-2--|--2----2-2-2---2-2-2-2--|
D|--0----0-0-0---0----0-0-0--|--0----0-0-0---0-0-0-0--|
A|--x----x-x-x---x----x-x-x--|--x----x-x-x---x-x-x-x--|
E|--x----x-x-x---x----x-x-x--|--x----x-x-x---x-x-x-x--|

    F#
e|--0h2--2-2-2---0h2--2-2-2--|--0h2--2-2-2---3-2-0-2--|
B|--2----2-2-2---2----2-2-2--|--2----2-2-2---2-2-2-2--|
G|--3----3-3-3---3----3-3-3--|--3----3-3-3---3-3-3-3--|
D|--x----x-x-x---x----x-x-x--|--x----x-x-x---x-x-x-x--|
A|--x----x-x-x---x----x-x-x--|--x----x-x-x---x-x-x-x--|
E|--x----x-x-x---x----x-x-x--|--x----x-x-x---x-x-x-x--|



[Bridge]

     D
e|:--0h2--2-2-2--2-2-2-2---:|:--5----5-5-5---5-5-5-5--:|
B|:--3----3-3-3--3-3-3-3---:|:--3----3-3-3---3-3-3-3--:|
G|:--2----2-2-2--2-2-2-2---:|:--2----2-2-2---2-2-2-2--:|
D|:--0----0-0-0--0-0-0-0---:|:--0----0-0-0---0-0-0-0--:|
A|:--x----x-x-x--x-x-x-x---:|:--x----x-x-x---x-x-x-x--:|
E|:--x----x-x-x--x-x-x-x---:|:--x----x-x-x---x-x-x-x--:|



[Part 2]

Repeat over and over:

     Gadd9              D
e|:--5-5-5--5-5-5-5--|--0-0h2-2-2--2-2-2-2--|
B|:--3-3-3--3-3-3-3--|--3-3---3-3--3-3-3-3--|
G|:--4-4-4--4-4-4-4--|--2-2---2-2--2-2-2-2--|
D|:--5-5-5--5-5-5-5--|--0-0---0-0--0-0-0-0--|
A|:--x-x-x--x-x-x-x--|--x-x---x-x--x-x-x-x--|
E|:--x-x-x--x-x-x-x--|--x-x---x-x--x-x-x-x--|

    Bm                     A
e|--0-0h2-2-2--2-2-2-2--|--0-0--5-5--5-5--5-5-5-5--:|
B|--3-3---3-3--3-3-3-3--|--2-2--2-2--2-2--2-2-2-2--:|
G|--4-4---4-4--4-4-4-4--|--2-2--2-2--2-2--2-2-2-2--:|
D|--4-4---4-4--4-4-4-4--|--2-2--2-2--2-2--2-2-2-2--:|
A|--x-x---x-x--x-x-x-x--|--0-0--0-0--2-2--0-0-0-0--:|
E|--x-x---x-x--x-x-x-x--|--x-x--x-x--x-x--x-x-x-x--:|



x  dead note
h  hammer-on 
:  reprise
Suggest correction
comments
print report bad tab
7 comments total. Showing first comments.
+3 reply
Jeisme25 10 Dec 27, 2006 10:08 PM

This tab is perfect! Thank you.

+3 reply
Pixelboy 26 Jun 12, 2007 05:34 AM

amazing, i love this song. xxx

+1 reply
robbie 335 Jul 31, 2007 07:06 AM

Excellent tab. Thanks!

guest
You may want to rate the tab now too:
select rating
Wanna post a correction for this tab? Suggest correction