Oops, an error
Loading. Please wait.

The Shrew Tab

2,233 views 3 this week
1 commentread comment
1 2 3 4 5
please rate
add to favorites
launch autoscroll
font size
0
reset
how to read this tab
guitar tuner
Autoscroll
slow
fast
+/-
esc
set tempo
stop
Help us to improve Ultimate-Guitar.com Take our survey!
×
Author
Difficulty
novice
The Shrew ~ Beirut

Horn:

|----------------------------------------|
|------3--3-----3--3-----4--4-----4--4---|
|------4--4-----4--4-----5--5-----5--5---|
|----------------------------------------|
|----------------------------------------|
|---3--------3--------3--------3---------| Repeat 

Trumpet:

|--------------------------------------------|
|---4p3--------------------------------------|
|-------5-4~--2h4-2-0--0h2-4-4~--4/5-4p2-0---|
|--------------------------------------------|
|--------------------------------------------|
|--------------------------------------------|

|------------------------------------------------------------|
|---------------------------------3~--3h4-3------------------|
|-------2-4~--4~-4/7--5-4~--5-4-5-----------5-4~--4-5~-2-4---|
|---4h5------------------------------------------------------|
|------------------------------------------------------------|
|------------------------------------------------------------|

Horn later during second singing part(takes some coordination):

|--------------------------------------------------------------------------|
|------3--3-----3--3-----4--4-----4--4-----3--3-----3--3-----4--4----4--4--|
|------4--4-----4--4-----5--5-----5--5-----4--4-----4--4-----5--5----5--5--|
|--------------------------------------------------------------------------|
|---------------------3--------------------------5--------3--------5-------|
|---3--------3-----------------5--------3----------------------------------|

Trumpet Again:

|------------------------------------------------|
|------------------------------------------------|
|---4--2~/-4~---5~--5/7-5-4~---4--2--4~---5--7---|
|------------------------------------------------|
|------------------------------------------------|
|------------------------------------------------|

Two Parts!!

Instrument 1:

|---3-3-3-3--3--3-3-3-3--3--3-3-3-3--3--3-3-3-3--3---|
|---3-3-3-3--3--3-3-3-3--3--4-4-4-4--4--4-4-4-4--4---|
|---4-4-4-4--4--4-4-4-4--4--5-5-5-5--5--5-5-5-5--5---|
|---5-5-5-5--5--5-5-5-5--5--5-5-5-5--5--5-5-5-5--5---|
|----------------------------------------------------|
|----------------------------------------------------|

Instrument 2:

|--------------------------------------------------|
|--------------------------------------------------|
|--------------------------------------------------|
|--------------------------------------------------|
|-------------3---3-3---3-------------3--3--3--3---|
|---3----3----------------3---3-3--3---------------|

|----------------------------------------------------|
|----------------------------------------------------|
|----------------------------------------------------|
|-----------------1-5---------------------1-5--------|
|-----2-5-------3-----3--3----2-5-------3-----3--3---|
|---3-----3--3--------------3-----3--3---------------|

|-----------------------------------------------------|
|-----------------------------------------------------|
|-----------------------------------------------------|
|-----------------1-5---1-5---------------1-5---1-5---|
|-----2-5---2-5-3-----3-------2-5---2-5-3-----3-------|
|---3-----3-----------------3-----3-------------------|

And so on...That's pretty much it.

Suggest correction
Give kudos to tab author, rate the tab!
1 2 3 4 5
comments
print report bad tab
1 comment total.
0 reply
Bearodactyl 275 wrote on April 27 2010, 06:54 pm

looked back over this tab, in the trumpet part, looks like I accidentally put
|----------------------------------------------------------|
|---------------------------------3~--3h5-3----------------|
|-------2-4~--4~-4/7--5-4~--5-4-5-----------5-4~--4-5~-2-4-|
|---4h5----------------------------------------------------|
|----------------------------------------------------------|
|----------------------------------------------------------|

That's no good, the 3 doesn't hammer on to 5, it's actually:

V
|----------------------------------------------------------|
|---------------------------------3~--3h4-3----------------|
|-------2-4~--4~-4/7--5-4~--5-4-5-----------5-4~--4-5~-2-4-|
|---4h5----------------------------------------------------|
|----------------------------------------------------------|
|----------------------------------------------------------|

guest
You may want to rate the tab now too:
select rating
Please do not post tabs as comments. Select "correction" instead!