Oops, an error
Loading. Please wait.

Husks tab

version 2
version 2

Whole song

Interactive

519 views 3 this week
no commentswrite comment
1 2 3 4 5
3 more votes to show rating
add to favorites
×
Save as Personal and add changes to this tab that will be seen only by you. Learn more ›
×
You can save this tab as Personal to edit and correct it or add notes. All changes will be seen only by you. Learn more »
launch autoscroll
font size
0
reset
how to read this tab
guitar tuner
edit
Autoscroll
slow
fast
+/-
esc
set tempo
stop
Author
Difficulty
-------------------------------------------------------------------------------
                             SONG NAME - Band Name
-------------------------------------------------------------------------------
Tabbed by: Calvin Pichotka
E-mail: calvin.pichotka@freenet.de

This version does not differ a lot from the other versions online. But it is easier to play.
The numbers in brackets are the numbers of the parts.
If you have any advices (or questions) to make this tab more comprehensible - please send me an e-mail.
I know that the end is a bit confusing but I hope you'll understand it the way it is. 
Have fun! :)



Tuning: E-Standard

| /   slide up
| \   slide down


(1)1st Guitar:

e|-----------------------------------------------------------------|
B|-----5-------5-------5-------5-------5-------5-------5-------5---|
G|---6---6---6---6---6---6---6---6---6---6---6---6---6---6---6---6-|
D|-----------------------------------------------------------------|
A|-4-------4-------4-------4-------4-------4-------4-------4-------|
E|-----------------------------------------------------------------|

(1)2nd Guitar:

e|-----------------------------------------------------------------|
B|-----------------------------------------------------------------|
G|---------------------6-------6-------6-------6-------6-------6---|
D|-------------------6---6---6---6---6---6---6---6---6---6---6---6-|
A|-----------------4-------4-------4-------4-------4-------4-------|
E|-----------------------------------------------------------------|

(2)1st Guitar:

e|-----------------------------------------------------------------|
B|-----5-------4-------5-------7-------5-------4-------5-------7---|
G|---6---6---6---6---6---6---6---6---6---6---6---6---6---6---6---6-|
D|-----------------------------------------------------------------|
A|-4-------4-------4-------4-------4-------4-------4-------4-------|
E|-----------------------------------------------------------------|

(2)2nd Guitar:

e|-----------------------------------------------------------------|
B|-----------------------------------------------------------------|
G|-----6-------6-------6-------6-------6-------6-------6-------6---|
D|---6---6---6---6---6---6---6---6---6---6---6---6---6---6---6---6-|
A|-4-------4-------4-------4-------4-------4-------4-------4-------|
E|-----------------------------------------------------------------|

(3)1st Guitar:

e|-----------------4-----------------------------------------------|
B|-----5-----7-----------7-----5-4-----4-----5-----7---5---4---5---|
G|---6-----6-----6-----6-----6-------6-----6-----6-----------------|
D|-----------------------------------------------------------------|
A|-0-----0-----0-----0-----0-------0-----0-----0-----0---0---0---0-|
E|-----------------------------------------------------------------|

(3)2nd Guitar:

e|---------------0-------------------------------0-----------------|
B|---------0-------0---0-----0-------------0-------0---0-----0-----|
G|-----2-----2-------2---2-----2-------2-----2-------2---2-----2---|
D|---2---2-----2-----------2-----2---2---2-----2-----------2-----2-|
A|-0-------------------------------0-------------------------------|
E|-----------------------------------------------------------------|

(4)1st Guitar:

e|-----------------------------------------------------------------|
B|-----5-------4-------5-------7-------5-------4-------5-------7---|
G|---6---6---6---6---6---6---6---6---6---6---6---6---6---6---6---6-|
D|-----------------------------------------------------------------|
A|-4-------4-------4-------4-------4-------4-------4-------4-------|
E|-----------------------------------------------------------------|

(4)2nd Guitar:

e|-----------------------------------------------------------------|
B|-----------------------------------------------------------------|
G|-----6-------6-------6-------6-------6-------6-------6-------6---|
D|---6---6---6---6---6---6---6---6---6---6---6---6---6---6---6---6-|
A|-4-------4-------4-------4-------4-------4-------4-------4-------|
E|-----------------------------------------------------------------|

(5)1st Guitar:

e|-----------------4-----------------------------------------------|
B|-----5-----7-----------7-----5-4-----4-----5-----7---5---4---5---|
G|---6-----6-----6-----6-----6-------6-----6-----6-----------------|
D|-----------------------------------------------------------------|
A|-0-----0-----0-----0-----0-------0-----0-----0-----0---0---0---0-|
E|-----------------------------------------------------------------|

(5)2nd Guitar:

e|---------------0-------------------------------0-----------------|
B|---------0-------0---0-----0-------------0-------0---0-----0-----|
G|-----2-----2-------2---2-----2-------2-----2-------2---2-----2---|
D|---2---2-----2-----------2-----2---2---2-----2-----------2-----2-|
A|-0-------------------------------0-------------------------------|
E|-----------------------------------------------------------------|

(6)1st Guitar:

e|-----4-------4---------------------------------------------------|
B|---------------------7-------7-------7-------5-------4-------4-5-|
G|---6---6---6---6---6---6---6---6---6---6---6---6---4---4---4-----|
D|-----------------------------------------------------------------|
A|-4-------4-------0-------0-------4-------4-------6-------6-------|
E|-----------------------------------------------------------------|
repeat til fadeout: 12 times

(7)2nd Guitar:
after 2 passes of part 6
e|-----------------------------------------------------------------|
B|-----------------------------------------------------------------|
G|-7/9---8---\6--------------------9/11--9----\4-------------------|
D|-----------------------------------------------------------------|
A|-----------------------------------------------------------------|
E|-----------------------------------------------------------------|

(8)2nd Guitar:

e|-----------------------------------------------------------------|
B|-----------------------------------------------------------------|
G|-7/9---8---\6--------------------9/11--9----11/13----11---9--8---|
D|-----------------------------------------------------------------|
A|-----------------------------------------------------------------|
E|-----------------------------------------------------------------|

(9)2nd Guitar:

e|-----0-----0-----0-----0-----0-------0-----0-----0-----0---------|
B|---0-----0-----0-----0-----0-------0-----0-----0-----0-----0---0-|
G|-9-----8-----6-----9-----8-----9-/11---9-----11/13-11----9---8---|
D|-----------------------------------------------------------------|
A|-----------------------------------------------------------------|
E|-----------------------------------------------------------------|
repeat 6 times

            
            
Suggest correction
Creating personal tab
Creating personal tab
You can edit any tab online and save it as your Personal.

You can edit, replace or remove any tab part or add personal notes – all changes will be seen only by you.

Personal tabs can be accessed anytime from any device, even offline.
Learn more »
Give kudos to tab author, rate the tab!
1 2 3 4 5
comments
print report bad tab
guest
You may want to rate the tab now too:
select rating
Wanna post a correction for this tab? Suggest correction