Oops, an error
Loading. Please wait.

Cannibal Holocaust tab

version 1
version 1

Whole song

Interactive

1,389 views 1 this week
1 commentread comment
1 2 3 4 5
3 more votes to show rating
add to favorites
×
Save as Personal and add changes to this tab that will be seen only by you. Learn more ›
×
You can save this tab as Personal to edit and correct it or add notes. All changes will be seen only by you. Learn more »
launch autoscroll
font size
0
reset
how to read this tab
guitar tuner
edit
Autoscroll
slow
fast
+/-
esc
set tempo
stop
Belie my burial-Cannibal Holocaust

Drop c

Its A Fairly Easy Song , Always Been On Here Looking For It So I Got tired And Tabbed It out:)
Intro
|-------------|-------------|
|-------------|-------------|
|-------------|-------------|
|-------------|-2--3--5--6--|
|--------2-2--|--3--5--6--8-|
|-5-4-3-0---3-|-------------|
  . . . .
Little bridge thingy?
|----------------------------|----------|
|----------------------------|----------|
|----------------------------|----------|
|----------------------------|----------| <-second ending
|-555555-444444-777777-555555|-5555-555-|
|----------------------------|----------|
verse same as the intro
|-------------|-------------|
|-------------|-------------|
|-------------|-------------|
|-------------|-2--3--5--6--|
|--------2-2--|--3--5--6--8-|
|-5-4-3-0---3-|-------------|
  . . . .
mint breakdown(figure out the timing) btw theyre are slides in between.
|-----------|
|-----------|
|-----------|
|-----------|
|-000000000-
|-000000000-
  .........
then repeat
|-------------|-------------|
|-------------|-------------|
|-------------|-------------|
|-------------|-2--3--5--6--|
|--------2-2--|--3--5--6--8-|
|-5-4-3-0---3-|-------------|
  . . . .

|----------------------------|----------|
|----------------------------|----------|
|----------------------------|----------|
|----------------------------|----------| <-second ending
|-555555-444444-777777-555555|-5555-555-|
|----------------------------|----------|
again
|-------------|-------------|
|-------------|-------------|
|-------------|-------------|
|-------------|-2--3--5--6--|
|--------2-2--|--3--5--6--8-|
|-5-4-3-0---3-|-------------|
  . . . .
then hit open and hold it(my buttons broken for the little sign:P)
|--
|--
|--
|0-
|0-
|0-
another mint breakdown(figure out the timing)
|-----------|
|-----------|
|-----------|
|-----------|
|-000000000-
|-000000000-
  .........
now this part x2
|----------------------------|----|
|----------------------------|----|
|----------------------------|----|
|-------------------------7-5|----|every 3rd ending
|-------------------------8-7|----|
|-000-000-000-000-000-000----|-3--|
  ... ... ... ... ... ...
outro
|---------|
|---------|
|---------|
|-5-4-3-0-|
|-5-4-3-0-|
|-5-4-3-0-|
  . . . .
there ya have it:)

            
            
Suggest correction
Creating personal tab
Creating personal tab
You can edit any tab online and save it as your Personal.

You can edit, replace or remove any tab part or add personal notes – all changes will be seen only by you.

Personal tabs can be accessed anytime from any device, even offline.
Learn more »
Give kudos to tab author, rate the tab!
1 2 3 4 5
comments
print report bad tab
1 comment total.
0 reply
tyloryorketabs 71 Aug 20, 2009 09:04 AM

sorry there is a mistake there

outro
|------------------
|------------------
|------------------
|-5-4-3-0-4-3-2-1-0
|-5-4-3-0-4-3-2-1-0
|-5-4-3-0-4-3-2-1-0
. . . . . . . . .

guest
You may want to rate the tab now too:
select rating
Wanna post a correction for this tab? Suggest correction