Oops, an error
Loading. Please wait.

Gone Bass Tab

version 1
version 1

Whole song

Interactive

73 views 1 this week
no commentswrite comment
1 2 3 4 5
please rate
add to favorites
launch autoscroll
font size
0
reset
guitar tuner
Autoscroll
slow
fast
+/-
esc
set tempo
stop
Help us to improve Ultimate-Guitar.com Take our survey!
×
Contributor
tonedeafidiot 39,151
#----------------------------------PLEASE NOTE---------------------------------#
#This file is the author's own work and represents their interpretation of the #
#song. You may only use this file for private study, scholarship, or research. #
#------------------------------------------------------------------------------#

GONE (Bassline)
As recorded by Believer
(From the 1993 Album DIMENSIONS)

Transcribed by Ibeanez
	



Gtr I (B E A D G) - 'Bass'

  Q=115
 4/4
  Gtr I
  Wx3            E S S S S S S S S E S E S  6x
|------------||-----------------------------||
|------------||o---------------------------o||
|------------||--4-------4-------2----------||
|------------||o---------------------------o||
|------------||----3-3-3---3-3-3-----3-3-3--||


                                          7/8
  W          +H.      E E   Q.   Q  Q  E   +E   S S E S S E S S E
|----------|--------------|--------------|-------------------------|
|----------|--------------|--------------|-------------------------|
|----------|------------2s|=5-------3----|-------------------------|
|----------|--------------|------6-----4-|-(4)\--------------------|
|-3--------|-(3)----------|--------------|------3-3---3-3---3-3----|


 4/4
  S S E S S  Q  Q  E   +E  E +E   S S E E Q
|--------------------|-----------------------|
|--------------------|--------------------2--|
|-----------/5-----4-|-(4)--------------2----|
|---------------6----|-----5-(5)\-----0------|
|-3-3---3-3----------|------------3-3--------|


                  H.=H
   Q.   Q  Q  E   +E   S S E S S E S S E S S
|---------------|-----------------------------|
|---------------|-----------------------------|
|-/5-------3----|-----------------------------|
|-------6-----4-|-(4)\------------------------|
|---------------|------3-3---3-3---3-3---3-3--|


  Q=76
  E S S E E. T T T T T T T T T T T T T T
|----------------------------------------|
|----------------------------------------|
|----------------------------------------|
|-------5-3------------------------------|
|-3-3-3------4-4-4-4-4-4-4-4-4-4-4-4-4-4-|


  E S S S S S S S S T T T T T T T T T T T T
|-------------------------------------------|
|-------------------------------------------|
|-------3s2---------------------------------|
|-------------2s3---3-3-3-3-5-5-5-5-3-3-3-3-|
|-3-3-3-----3-----3-------------------------|


  E S S E E. T T T T T T T T T T T T T T   E S S S S S S S S a E. a E.
|----------------------------------------|-----------------------------|
|----------------------------------------|-----------------------------|
|----------------------------------------|-------3s2---------5s6--5s6--|
|-------5-3------------------------------|-------------2s3-------------|
|-3-3-3------4-4-4-4-4-4-4-4-4-4-4-4-4-4-|-3-3-3-----3-----3-----------|


  E  S S E E. T T T T T T T T T T T T T T
|-----------------------------------------|
|-----------------------------------------|
|-5\--------------------------------------|
|--------5-3------------------------------|
|----3-3------4-4-4-4-4-4-4-4-4-4-4-4-4-4-|


  E S S S S S S S S T T T T T T T T T T T T
|-------------------------------------------|
|-------------------------------------------|
|-------3s2---------------------------------|
|-------------2s3---3-3-3-3-5-5-5-5-3-3-3-3-|
|-3-3-3-----3-----3-------------------------|


  E S S E E. T T T T T T T T T T T T T T   E S S S S S S S S a E. a E.
|----------------------------------------|-------------------------------|
|----------------------------------------|-------------------------------|
|----------------------------------------|-------3s2---------5s6--5s6----|
|-------5-3------------------------------|-------------2s3---------------|
|-3-3-3------4-4-4-4-4-4-4-4-4-4-4-4-4-4-|-3-3-3-----3-----3-------------|


  E  S S E E. T T T T T T T T T T T T T T
|-----------------------------------------|
|-----------------------------------------|
|-5\--------------------------------------|
|--------5-3------------------------------|
|----3-3------4-4-4-4-4-4-4-4-4-4-4-4-4-4-|


  E S S S S S S S S T T T T T T T T T T T T
|-------------------------------------------|
|-------------------------------------------|
|-------3s2---------------------------------|
|-------------2s3---3-3-3-3-5-5-5-5-3-3-3-3-|
|-3-3-3-----3-----3-------------------------|


  E S S E E. T T T T T T T T T T T T T T   E S S S S S S S S a E. a E.
|----------------------------------------|-------------------------------|
|----------------------------------------|-------------------------------|
|----------------------------------------|-------3s2---------------------|
|-------5-3------------------------------|-------------2s3---7s8--7s8----|
|-3-3-3------4-4-4-4-4-4-4-4-4-4-4-4-4-4-|-3-3-3-----3-----3-------------|


  E  S S E E. T T T T T T T T T T T T T T
|-----------------------------------------|
|-----------------------------------------|
|-----------------------------------------|
|-7\-----5-3------------------------------|
|----3-3------4-4-4-4-4-4-4-4-4-4-4-4-4-4-|


 5/4
  E S S S S S S S S S S S S S S S S S S
|----------------------------------------|
|----------------------------------------|
|-------3s2---------5-5-5-4-4-5-5--------|
|-------------2s3-----------------6-6-5--|
|-3-3-3-----3-----3----------------------|


 4/4                                     9/16
  H    +E. E E S   H    S S S S S S S S   +H     S
|----------------|----------------------|----------|
|----------------|----------------------|----------|
|----------------|-5----5-5-5-4---5-----|----------|
|----------4-3-5-|--------------3---3-6-|-(6)----5-|
|-3----(3)-------|----------------------|----------|


 4/4                                       9/16
               ~     ~
  H    +E. S S E S   H    S S S S S S S S   +H     S
|------------------|----------------------|----------|
|------------------|----------------------|----------|
|------------5---5-|------5-5-5-4---5-----|----------|
|----------3---4---|-4------------3---3-6-|-(6)----5-|
|-3----(3)---------|----------------------|----------|


 4/4                                         9/16
               ~       ~
  H    +E. S S S S S   H    S S S S S S S S   +H     S
|--------------------|----------------------|-----------|
|--------------------|----------------------|-----------|
|------------5-------|------5-5-5-4---5-----|-----------|
|----------3---4-3-5-|-4------------3---3-6-|-(6)----5--|
|-3----(3)-----------|----------------------|-----------|


 4/4                                       9/16
                     ~
  H    +E. S S E S   H    S S S S S S S S   +H     S
|------------------|----------------------|----------|
|------------------|----------------------|----------|
|------------5---5-|------5-5-5-4---5-----|----------|
|----------3---5---|-4------------3---3-6-|-(6)----5-|
|-3----(3)---------|----------------------|----------|


  Q=110
 5/4             4/4
  W        +Q     E +S  E +S  E +S  E +S  Q
|---------------|----------------------------|
|---------------|----------------------------|
|---------------|-3-(3)S6-(6)S2-(2)S4-(4)S0--|
|---------------|----------------------------|
|-3--------(3)--|----------------------------|


  +E. S S S S E +S  E +S  E +S    E.  S  +H  S S S S
|-------------------------------|---------------------|
|-------2-----------------------|------------3-2------|
|-(0)-----3-4-3-(3)S6-(6)S2-(2)S|=4--------------3-4--|
|-----1-------------------------|---------------------|
|-------------------------------|-----3--(3)----------|


  E +S  E +S  E +S  E +S  Q
|----------------------------|
|----------------------------|
|-3-(3)S6-(6)S2-(2)S4-(4)S0--|
|----------------------------|
|----------------------------|


  +E. S S S S E +S  E +S  E +S    E. S +H     S S S S
|-------------------------------|---------------------|
|-------2-----------------------|-------------3-2-----|
|-(0)-----3-4-3-(3)S6-(6)S2-(2)S|=4--5-(5)--------3-4-|
|-----1-------------------------|---------------------|
|-------------------------------|---------------------|


                            ~~~~
  E +S   E  +S  E +S  E +S  Q
|------------------------------|
|------------------------------|
|-7-(7)S10-(10)S7-(7)S9-(9)S5--|
|------------------------------|
|------------------------------|


 ~~~~~
  +E. S S S S E +S  E +S  E +S    E. S +H     S S S S
|-------------------------------|-----------------------|
|-------------------------------|-------------3-2-------|
|-(5)---7-----3-(3)S6-(6)S2-(2)S|=4--5-(5)--------3-4---|
|---------8-9-------------------|-----------------------|
|-----6-------------------------|-----------------------|


  E. E E S H      S S S S S S S S +S  T T S S T T S T T S
|---------------|-----------------------------------------|
|---------------|-----------------------------------------|
|-5----4--------|-5-----3---------------------------------|
|----6---5-7----|---6-----4---5---------------------------|
|---------------|---------------3-(3)-3-3-3-3-3-3-3-3-3-3-|


  E. E E S  E E Q    S S S S S S S S H
|---------------9--|----------------------|
|-------------9----|----------------------|
|-5----4---/7------|-5-----3--------------|
|----6---5---------|---6-----4---5--------|
|------------------|---------------3------|


    E +S  E +S  E +S  E +S  Q
||-----------------------------|
||o----------------------------|
||--3-(3)S6-(6)S2-(2)S4-(4)S0--|
||o----------------------------|
||-----------------------------|


  +E. S S S S E +S  E +S  E +S    E. S +H     S S S S
|-------------------------------|-----------------------||
|-------2-----------------------|-------------3-2------o||
|-(0)-----3-4-3-(3)S6-(6)S2-(2)S|=4--5-(5)--------3-4---||
|-----1-------------------------|----------------------o||
|-------------------------------|-----------------------||


                            ~~~~
  E +S   E  +S  E +S  E +S  Q
|------------------------------|
|------------------------------|
|-7-(7)S10-(10)S7-(7)S9-(9)S5--|
|------------------------------|
|------------------------------|


 ~~~~~
  +E. S S S S E +S  E +S  E +S    E. S +H     S S S S
|-------------------------------|-----------------------|
|-------------------------------|-------------3-2-------|
|-(5)---7-----3-(3)S6-(6)S2-(2)S|=4--5-(5)--------3-4---|
|---------8-9-------------------|-----------------------|
|-----6-------------------------|-----------------------|


  E. E E S H      S S S S S S S S +S  T T S S T T S T T S
|---------------|-----------------------------------------|
|---------------|-----------------------------------------|
|-5----4--------|-5-----3---------------------------------|
|----6---5-7----|---6-----4---5---------------------------|
|---------------|---------------3-(3)-3-3-3-3-3-3-3-3-3-3-|


  E. E E S  E E Q    S S S S S S S S +H
|---------------9--|------------------------|
|-------------9----|------------------------|
|-5----4---/7------|-5-----3----------------|
|----6---5---------|---6-----4---5----------|
|------------------|---------------3-(3)----|


  Q.   S S H      +H     H      S S S S E S S H      S E E E. H
|---------------|-------------|--------------------|---------------|
|---------------|-------------|--------------------|-------3-------|
|------5-3------|--------5----|-------3------------|-----5----5----|
|----------0----|-(0)---------|-0-1-------0---0----|-0-4-----------|
|-3-------------|-------------|-------------3------|---------------|


                                                             2/4
              ~~~~~~~
  E. S  +Q    Q  +S  E.   E. E E. H      S S S S E S S H      S E E  E.
|-----------------------|--------------|-------------7------|-----7-10-----|
|-----------------------|--------------|---------------6----|---6----------|
|-5S12-(12)\--7--(7)-7\-|------5--5----|-----------5--------|-7------------|
|-----------------------|-0--4---------|-------8------------|--------------|
|-----------------------|--------------|-5-6----------------|--------------|


  Q=115
 11/8
  E Q  W            S S S S E       S S S S E       S S S S E       S S S S  5x
|---------------||-----------------------------------------------------------||
|---------------||o---------------------------------------------------------o||
|---------------||----------0tr1------------2tr3------------0tr1-------------||
|---------------||o---0-1-------------0-1-------------0-1-------------0-1-0-o||
|-3-------------||--3-----3---------3-----3---------3-----3---------3--------||


 4/4
  E S S  E E +H       S S  Q  Q   Q  E
|-------------------|------------------|
|-------------------|------------------|
|-------/5----------|------------------|
|----------6-(6)----|-----/6--5\--1--0-|
|-3-3-3-------------|-3-3--------------|


  E S S  E E +E  E Q    S S  Q  Q   Q  E
|---------------------|-------------------|
|------------------8--|-------------------|
|-------/5-------8----|-------------------|
|----------6-(6)------|-----/6--5\--1--0--|
|-3-3-3---------------|-3-3---------------|


  E S S  E E +E   E E S S   Q.   Q  Q  E
|-------------------------|--------------|
|----------------/8-7-8p7-|--------------|
|-------/5----------------|-8----7-------|
|----------6-(6)----------|--------------|
|-3-3-3-------------------|---------6--5-|


                  ~
  E S S  E E  E E Q    S S  Q  Q   Q  E
|--------------------|--------------------|
|------------/8-7----|--------------------|
|-------/5--------8--|--------------------|
|----------6---------|-----/6--5\--1--0---|
|-3-3-3--------------|-3-3----------------|


   11/8
    S S S S E    S S S S E    S S S S E    S S S S  4x
||--------------------------------------------------||
||o------------------------------------------------o||
||----------1tr2---------3tr4---------1tr2----------||
||o---0-1----------0-1----------0-1----------0-1-0-o||
||--3-----3------3-----3------3-----3------3--------||


 4/4
  S. H    E.. E.      S. S. S E S S S S S S S E.   5x
|-----------------||-------------------------------||
|-----------------||o-----------------------------o||
|-------------5\--||----------4-------4-------5\---||
|-----------------||o-----------------------------o||
|-3---------------||--3--3--3---3-3-3---3-3-3------||


                                               Q=110
                                                           2/4
  Q..     S +H       +H..       E   W          +W           +H
|------------------|--------------|----------|------------|--------|
|------------------|--------------|----------|------------|--------|
|------------------|--------------|----------|------------|--------|
|---------6-(6)----|-(6)--------5-|----------|------------|--------|
|-3----------------|--------------|-3--------|-(3)--------|-(3)----|


   4/4
    E +S  E +S  E  +S  E +S  Q
||------------------------------|
||o-----------------------------|
||--3-(3)S6-(6)S2--(2)S4-(4)S0--|
||o-----------------------------|
||------------------------------|


  +E. S S S S E  +S  E +S  E +S    E.  S +H      S S S S
|--------------------------------|------------------------||
|-------2------------------------|---------------3-2-----o||
|-(0)-----3-4-3--(3)S6-(6)S2-(2)S|=4---5-(5)---------3-4--||
|-----1--------------------------|-----------------------o||
|--------------------------------|------------------------||


                             ~~~~
  E +S   E  +S  E  +S  E +S  Q
|-------------------------------|
|-------------------------------|
|-7-(7)S10-(10)S7--(7)S9-(9)S5--|
|-------------------------------|
|-------------------------------|


 ~~~~~~
  +E.  S S S S E  +S  E +S  E +S    E.  S +H      S S S S
|---------------------------------|-----------------------|
|---------------------------------|---------------3-2-----|
|-(5)\---7-----3--(3)S6-(6)S2-(2)S|=4---5-(5)---------3-4-|
|----------8-9--------------------|-----------------------|
|------6--------------------------|-----------------------|


  E. E E S H      S S S S S S S S +S  T T S S T T S T T S
|---------------|-----------------------------------------|
|---------------|-----------------------------------------|
|-5----4--------|-5-----3---------------------------------|
|----6---5-7----|---6-----4---5---------------------------|
|---------------|---------------3-(3)-3-3-3-3-3-3-3-3-3-3-|


  E. E E S  E E Q    S S S S S S S S +H
|---------------9--|------------------------|
|-------------9----|------------------------|
|-5----4---/7------|-5-----3----------------|
|----6---5---------|---6-----4---5----------|
|------------------|---------------3-(3)----|


  Q  +S  E. H      E. E E. H      E S S +Q    H      S E E E. H
|----------------|--------------|------------------|---------------|
|----------------|--------------|-----7-(7)\-------|-------3-------|
|--------5-------|------5--5----|-5s7--------------|-----5----5----|
|-----------0----|-0--4---------|-------------0----|-0-4-----------|
|-3--(3)---------|--------------|------------------|---------------|


                  ~~~                                  ~
  E S S +Q    Q  +E  +E     E. E E. H      E S S +Q    H      S E E E. H
|-------------------------|--------------|------------------|---------------|
|-----7-(7)\--------------|--------------|-----7-(7)\--6----|-------3-------|
|-5s7---------7--(7)-(7)\-|------5--5----|-5s7--------------|-----5----5----|
|-------------------------|-0--4---------|------------------|-0-4-----------|
|-------------------------|--------------|------------------|---------------|


                                                     ~
  E S S +Q     Q  +Q      E. E E. H      E S S +Q    H      S E E E. e Q.
|-----------------------|--------------|------------------|------------------*|
|-----7-(7)\------------|--------------|-----7-(7)\--6----|-------3----------*|
|-5s7---------/7--(7)\--|------5--5----|-5s7--------------|-----5------------*|
|-----------------------|-0--4---------|------------------|-0-4--------------*|
|-----------------------|--------------|------------------|----------3-------*|



Duration Legend
---------------
W - whole; H - half; Q - quarter; E - 8th; S - 16th; T - 32nd; X - 64th; a - acciaccatura
+ - note tied to previous; . - note dotted; .. - note double dotted
Uncapitalized letters represent notes that are staccato (1/2 duration)
Irregular groupings are notated above the duration line
Duration letters will always appear directly above the note/fret number it represents the
duration for.  Duration letters with no fret number below them represent rests.  Multi-
bar rests are notated in the form Wxn, where n is the number of bars to rest for.  Low
melody durations appear below the staff

Tablature Legend
----------------
 h   - hammer-on
 p   - pull-off
 b   - bend
 pb  - pre-bend
 r   - bend release (if no number after the r, then release immediately)
 /\  - slide into or out of (from/to "nowhere")
 s   - legato slide
 S   - shift slide
 - natural harmonic
[n]  - artificial harmonic
n(n) - tapped harmonic
 ~   - vibrato
 tr  - trill
 T   - tap
 TP  - trem. picking
 PM  - palm muting
\n/  - tremolo bar dip; n = amount to dip
 \n  - tremolo bar down
 n/  - tremolo bar up
/n\  - tremolo bar inverted dip
 =   - hold bend; also acts as connecting device for hammers/pulls
 <> - volume swell (louder/softer)
 x   - on rhythm slash represents muted slash
 o   - on rhythm slash represents single note slash

Misc Legend
-----------
 |  - bar
||  - double bar
||o - repeat start
o|| - repeat end
*|  - double bar (ending)
 :  - bar (freetime)
 $  - Segno
 &  - Coda
Tempo markers -  = BPM(8/16=s8/s16), where s8 = swing 8ths, s16 = swing 16ths

Suggest correction new What's this?
You can suggest a correction to this tab. Community and Mods will review your correction and vote to approve or reject it.
comments
We did not receive enough feedback on this tab! Please rate:
print report bad tab
1 2 3 4 5
guest
You may want to rate the tab now too:
select rating
Please do not post tabs as comments. Select "correction" instead!