Oops, an error
Loading. Please wait.

Heaven Is A Place On Earth tab

version 2
version 2

Whole song

Interactive

166 views 12 this week
no commentswrite comment
1 2 3 4 5
3 more votes to show rating
add to favorites
×
Save as Personal and add changes to this tab that will be seen only by you. Learn more ›
×
You can save this tab as Personal to edit and correct it or add notes. All changes will be seen only by you. Learn more »
launch autoscroll
font size
0
reset
how to read this tab
guitar tuner
edit
Autoscroll
slow
fast
+/-
esc
set tempo
stop
[Intro]

N.C.   
Ooh, baby, do you know what that's worth?
N.C.
Ooh, Heaven is a place on Earth.
N.C.
They say in Heaven love comes first,
N.C.
We'll make Heaven a place on Earth,
N.C.
Ooh, Heaven is a place on Earth.

Bm   G    A    Bm

D    G    A    Bm

Bm   G    A    Bm

D    G    A    Bm

e|----------------2-2----------------------------2-2------------------------|
B|-3-----2-2--3---3-3-----2-2--3---3-----2-2--3--3-3-----2-2--3-------------|
G|-4--0--2-2--4---2-2--0--2-2--4---4--0--2-2--4--2-2--0--2-2--4-------------|
D|-4--0--2-2--4---0-0--0--2-2--4---4--0--2-2--4--0-0--0--2-2--4-------------|
A|-2--x--0-0--2---0-0--x--0-0--2---2--x--0-0--2--0-0--x--0-0--2-------------|
E|----3----------------3--------------3---------------3---------------------|


e|-2-2----------------------------------------------------------------------|
B|-3-3--0--2-2--3--------2--3-----0------3----------------------------------|
G|-2-2--0--2-2--4------2------2-----2------2--------------------------------|
D|-0-0--0--2-2--4----0----------0-----0-------0-----------------------------|
A|-0-0--x--0-0--2-----------------------------------------------------------|
E|------3-------------------------------------------------------------------|


[Verse]


  pm              pm             pm       pm
e|---------------------------------------------------------------------------|
B|-3-3-3-3-3-3-3-------------------------------------------------------------|
G|-2-2-2-2-2-2-2--2-2-2-2-2-2-2--0-0-0-0--2-2-2-2----------------------------|
D|-0-0-0-0-0-0-0--2-2-2-2-2-2-2--0-0-0-0--2-2-2-2----------------------------|
A|----------------0-0-0-0-0-0-0--x-x-x-x--0-0-0-0----------------------------|
E|-------------------------------3-3-3-3-------------------------------------|

          D           A
When the night falls down,
   G                     A
I wait for you, and you come around
         D        A
And the world's alive
          G                      A
With the sound of kids on the street outside.

[Pre-Chorus]
                                          pm        pm
e|-0-0-0-0---0-0-0-0---0-0-0-0---0-0-0-0------------0-0-0-0---1--0--0--0------|
B|-1-1-1-1---3-3-3-3---1-1-1-1---3-3-3-3------------1-1-1-1---3--0--1--3------|
G|-2-2-2-2---4-4-4-4---2-2-2-2---4-4-4-4------------2-2-2-2---2--0--2--4------|
D|-3-3-3-3---5-5-5-5---3-3-3-3---5-5-5-5--2-2-2-2---3-3-3-3---0--2--3--5------|
A|----------------------------------------2-2-2-2-------------0--2------------|
E|----------------------------------------0-0-0-0----------------0------------|

  F                  G
   When you walk into the room
  F                             G
   You pull me close and we start to move,
  Em                              F
   And we're spinning with the stars above
          Dm   Em        F       G
 And you lift me up in a wave of love


[Chorus]

Bm   G             A                Bm
Ooh, baby, do you know what that's worth?
 D    G            A      Bm
Ooh, Heaven is a place on Earth.
     Bm     G      A          Bm
They say in Heaven love comes first
 D          G         A      Bm
We'll make Heaven a place on Earth
 D    G            A      Bm
Ooh, Heaven is a place on Earth


[Verse]


  pm              pm             pm       pm
e|----------------------------------------------------------------------------|
B|-3-3-3-3-3-3-3--------------------------------------------------------------|
G|-2-2-2-2-2-2-2--2-2-2-2-2-2-2--0-0-0-0--2-2-2-2-----------------------------|
D|-0-0-0-0-0-0-0--2-2-2-2-2-2-2--0-0-0-0--2-2-2-2-----------------------------|
A|----------------0-0-0-0-0-0-0--x-x-x-x--0-0-0-0-----------------------------|
E|-------------------------------3-3-3-3--------------------------------------|

        D     A
When I feel alone
   G                       A
I reach for you, and you bring me home.
          D       A
When I'm lost at sea
   G                      A
I hear your voice and it carries me


[Pre-Chorus]
                                          pm        pm
e|-0-0-0-0---0-0-0-0---0-0-0-0---0-0-0-0------------0-0-0-0---1--0--0--0-------|
B|-1-1-1-1---3-3-3-3---1-1-1-1---3-3-3-3------------1-1-1-1---3--0--1--3-------|
G|-2-2-2-2---4-4-4-4---2-2-2-2---4-4-4-4------------2-2-2-2---2--0--2--4-------|
D|-3-3-3-3---5-5-5-5---3-3-3-3---5-5-5-5--2-2-2-2---3-3-3-3---0--2--3--5-------|
A|----------------------------------------2-2-2-2-------------0--2-------------|
E|----------------------------------------0-0-0-0----------------0-------------|

 F                       G 
In this world we're just beginning
    F                     G
To understand the miracle of living.
  Em               F
Baby, I was afraid before
        Dm    Em  F   G
But I'm not afraid anymore.

[Chorus]

Bm   G             A                Bm
Ooh, baby, do you know what that's worth?
 D    G            A      Bm
Ooh, Heaven is a place on Earth.
     Bm     G      A          Bm
They say in Heaven love comes first,
 D          G         A      Bm
We'll make Heaven a place on Earth,
 D    G            A      D
Ooh, Heaven is a place on Earth.

[Bridge]

Bm    G    A    A

D    Bm    G    A

             (x14)
e|------5-2----------------------------------------------------------------------|
B|-2/3---------------------------------------------------------------------------|
G|-------------------------------------------------------------------------------|
D|-------------------------------------------------------------------------------|
A|-------------------------------------------------------------------------------|
E|-------------------------------------------------------------------------------|


[Pre-Chorus]
                                          pm        pm
e|-0-0-0-0---0-0-0-0---0-0-0-0---0-0-0-0------------0-0-0-0---1--0--0--0---------|
B|-1-1-1-1---3-3-3-3---1-1-1-1---3-3-3-3------------1-1-1-1---3--0--1--3---------|
G|-2-2-2-2---4-4-4-4---2-2-2-2---4-4-4-4------------2-2-2-2---2--0--2--4---------|
D|-3-3-3-3---5-5-5-5---3-3-3-3---5-5-5-5--2-2-2-2---3-3-3-3---0--2--3--5---------|
A|----------------------------------------2-2-2-2-------------0--2---------------|
E|----------------------------------------0-0-0-0----------------0---------------|

 F                       G 
In this world we're just beginning
    F                     G
To understand the miracle of living.
  Em               F
Baby, I was afraid before
        Dm    Em  F   G
But I'm not afraid anymore.

Bm   G   A   Bm

D    G   A   Bm

Bm   G   A   Bm

D    G   A

[Chorus]

e|----------------0-0----------------------------0-0-------------------------|
B|-5-----4-4--5---0-0-----4-4--6---6-----4-4--6--0-0-----4-4--6--------------|
G|-6--2--4-4--6---1-1--2--4-4--5---5--2--4-4--4--1-1--2--4-4--5--------------|
D|-6--2--4-4--6---2-2--2--4-4--5---5--2--4-4--4--2-2--2--4-4--5--------------|
A|-4--0--2-2--4---2-2--0--2-2--4---4--0--2-2--5--2-2--0--2-2--4--------------|
E|----------------0-0----------------------------0-0-------------------------|

                   [x6]
e|---------------------------------------------------------------------------|
B|---------4-4--6------------------------------------------------------------|
G|-1-1--2--4-4--5------------------------------------------------------------|
D|-2-2--2--4-4--5------------------------------------------------------------|
A|-2-2--0--2-2--4------------------------------------------------------------|
E|-0-0-----------------------------------------------------------------------|



C#m   A            B              C#m
Ooh, baby, do you know what that's worth?
E    A            B     C#m 
Ooh, Heaven is a place on Earth.
     C#m     A      B         C#m
They say in Heaven love comes first,
E          A         B     C#m
We'll make Heaven a place on Earth,
E    A            B     C#m  
Ooh, Heaven is a place on Earth,
E    A            B     C#m  
Ooh, Heaven is a place on Earth,
E    A            B     C#m  
Ooh, Heaven is a place on Earth,
E    A            B     C#m  
Ooh, Heaven is a place on Earth,
E    A            B     C#m  
Ooh, Heaven is a place on Earth

    



            
            
Suggest correction
Creating personal tab
Creating personal tab
You can edit any tab online and save it as your Personal.

You can edit, replace or remove any tab part or add personal notes – all changes will be seen only by you.

Personal tabs can be accessed anytime from any device, even offline.
Learn more »
Give kudos to tab author, rate the tab!
1 2 3 4 5
comments
print report bad tab
guest
You may want to rate the tab now too:
select rating
Wanna post a correction for this tab? Suggest correction