Oops, an error
Loading. Please wait.

In Too Deep Bass Tab

31 views 1 this week
no commentswrite comment
1 2 3 4 5
3 more votes to show rating
add to favorites
launch autoscroll
font size
0
reset
guitar tuner
Autoscroll
slow
fast
+/-
esc
set tempo
stop
Help us to improve Ultimate-Guitar.com Take our survey!
×
Author
Difficulty
novice
Bass Start - 00:07


[Intro]

G|---------|
D|-4-3-1---|
A|-------4-|
E|---------|


[Verse 1]

G|-------------|---------------|-------------|-----------------|
D|-------------|---------------|-------------|-------3/4-3-1---|
A|-----3-4-----|---------------|-----3-4-----|---------------4-|
E|-4---------4-|-2---2-2-2-2-2-|-4---------4-|-2---2-----------|


G|-------------|---------------|-------------|----------------|
D|-------------|---------------|-------------|----------------|
A|-----3-4-----|---------------|-----3-4-----|----------------|
E|-4---------4-|-2--2-2-2--2-2-|-4---------4-|-2--2-2-2-2-2-2-|


[Pre-Chorus]

G|--------------|---------------|---------------|----------------|
D|-----------3--|---------------|------------3--|--------4-3-----|
A|---------4----|--6-----6---4--|----------4----|--6---6-----6-4-|
E|-4---4-6------|------6---6----|--4---4-6------|----------------|


G|--------------|---------------|----------------|---------------|
D|-----------3--|---------------|----------------|---------------|
A|---------4----|--6-----6---4--|----------------|---------------|
E|-4---4-6------|------6---6----|--2-------------|-4-------------|


[Chorus]

G|--------------|-------------|-----------3--|---------------|
D|--------1---1-|-------------|---------4----|--4---4--------|
A|--4---4-------|-------------|-4---4-6------|------------3--|
E|--------------|-2---2-4---4-|--------------|--------4-6----|


G|-------------|------------|-----------3--|-----------------|
D|-------1---1-|------------|---------4----|--4--4-4---------|
A|-4---4-------|------------|-4---4-6------|-------------3---|
E|-------------|-2----4-----|--------------|---------4-6---4-|


G|---------------|--------------|----------------|--------------------|--------------------------|
D|--------1--1-1-|--------------|----------------|--------------------|----------------3/4-3-1---|
A|-4--4-4--------|--------------|--1--1-1-1--1---|--------------------|--3-4-------------------4-|
E|---------------|-2--2-2-4--4--|--------------4-|-2-2-2-2-4-4-4-4-4--|--------4-2---2-----------|


G|-------------|------------------|
D|-------------|------------------|
A|-----3-4-----|------------------|
E|-4---------4-|-2------------1-2-|


[Verse 2]

G|-------------|------------------|-------------|----------------|
D|-------------|--------3/4-3-1---|-------------|----------------|
A|-----3-4-----|----------------4-|-----3-4-----|----------------|
E|-4---------4-|-2--2-2-----------|-4---------4-|-2--------------|


G|--------------|------------------|-------------|---------------|
D|--------------|--------3/4-3-1---|-------------|---------------|
A|------3-4-----|----------------4-|-----3-4-----|---------------|
E|--4---------4-|-2--2-2-----------|-4---------4-|-2---2-2-2-2-2-|


[Pre-Chorus]

G|--------------|---------------|---------------|----------------|
D|-----------3--|---------------|------------3--|--------4-3-----|
A|---------4----|--6-----6---4--|----------4----|--6---6-----6-4-|
E|-4---4-6------|------6---6----|--4---4-6------|----------------|


G|--------------|---------------|--------------|-----------------|
D|-----------3--|---------------|--------------|-----------------|
A|---------4----|--6-----6---4--|--------------|-----------------|
E|-4---4-6------|------6---6----|--2---2-2---2-|-4-4-4-4-4-4-4-4-|


[Chorus]

G|-------------|---------------|-----------3--|----------------|
D|-------1---1-|---------------|---------4----|--4---4---------|
A|-4---4-------|---------1-3---|-4---4-6------|------------3---|
E|-------------|-2---2-4-----4-|--------------|--------4-6---4-|


G|--------------|----------------|-----------3--|-----------------|
D|--------1--1--|----------------|---------4----|--4--4-4---------|
A|--4---4-------|----------1-3---|-4---4-6------|-------------3---|
E|--------------|--2---2-4-----4-|--------------|---------4-6---4-|


G|---------------|-------------|--------------|---------------|
D|--------1--1-1-|-------------|--------------|---------------|
A|-4--4-4--------|-------------|--1---1-1-----|---------------|
E|---------------|-2--2-2-4----|------------4-|-2---2-4-4-4-4-|


[Bridge]

G|----------|--------------|----------|--------------|
D|----------|--------------|----------|--------------|
A|----------|--6---6-------|----------|--6---6-------|
E|-1---1-2--|--------4---2-|-1---1-2--|--------4---2-|


G|----------|--------------|----------|------------------|
D|----------|--------------|----------|------------------|
A|----------|--6---6-------|----------|--6-6-6-6---------|
E|-1---1-2--|--------4---2-|-1---1-2--|----------4-4-4-4-|


G|-------------|-----------------|
D|-------------|-------3/4-3-1---|
A|-----3-4-----|---------------4-|
E|-4---------4-|-2---2-----------|


[Instrumental]

G|--------------|---------------|---------------|---------------|
D|-----------3--|---------------|------------3--|---------------|
A|---------4----|--6-----6---4--|----------4----|--6-----6---4--|
E|-4---4-6------|------6---6----|--4---4-6------|------6---6----|


G|--------------|-----------------|
D|--------------|-----------------|
A|--------------|-----------------|
E|--2---2-2---2-|-4-4-4-4-4-4-4-4-|


[Chorus]

G|-------------|---------------|-----------3--|----------------|
D|-------1---1-|---------------|---------4----|--4--4----------|
A|-4---4-------|---------1-3---|-4---4-6------|------------3---|
E|-------------|-2---2-4-----4-|--------------|--------4-6---4-|


G|--------------|---------------|-----------3--|----------------|
D|--------1---1-|---------------|---------4----|--4--4----------|
A|--4---4-------|---------1-3---|-4---4-6------|------------3---|
E|--------------|-2---2-4-----4-|--------------|--------4-6---4-|


G|-------------|-------------|-------------|--------------------|--------------------------|
D|-------1---1-|-------------|-------------|--------------------|----------------3/4-3-1---|
A|-4---4-------|-------------|-1---1-1-----|--------------------|--3-4-------------------4-|
E|-------------|-2---2-4---4-|-----------4-|-2-2-2-2-4-4-4-4-4--|--------4-2---2-----------|


[Outro]

G|-------------|--------------|-------------|----------------|
D|-------------|--------------|-------------|------3/4-3-1---|
A|-----3-4-----|--------------|-----3-4-----|--------------4-|
E|-4---------4-|-2---2-2--1-2-|-4---------4-|-2--------------|


G|-------------|-----------------|-------------|----------------|
D|-------------|-----------------|-------------|------3/4-3-1---|
A|-----3-4-----|-----------------|-----3-4-----|--------------4-|
E|-4---------4-|-2-2-2-2-2-2-2-2-|-4---------4-|-2--------------|


G|-------------|--------------|-------------|----------------| (x2)
D|-------------|--------------|-------------|------3/4-3-1---|
A|-----3-4-----|--------------|-----3-4-----|--------------4-|
E|-4---------4-|-2---2-2--1-2-|-4---------4-|-2--------------|



***************************

| / : slide up

***************************

in regular sequence!
Suggest correction
Give kudos to tab author, rate the tab!
1 2 3 4 5
comments
print report bad tab
guest
You may want to rate the tab now too:
select rating
Wanna post a correction for this tab? Suggest correction