Oops, an error
Loading. Please wait.

Poison Bass

6,529 views 30 this week
2 commentsread comments
1 2 3 4 5
x 8
add to favorites
×
Save as Personal and add changes to this tab that will be seen only by you. Learn more ›
save as personal
new!
launch autoscroll
font size
0
reset
guitar tuner
Autoscroll
slow
fast
+/-
esc
set tempo
stop
Author
Difficulty
novice
-------------------------------------------------------------------------------
                                      Poison - Bell Biv DeVoe
-------------------------------------------------------------------------------
Tabbed by: TandyJake

I know there's not a whole lot to this song, but the bass is kind of catchy and fun to 
play.  It's very simple and there's only two different licks played during the verse and chorus.

The bass doesn't come in until they actually start singing.


Intro/Verse
---------------------|---------------------|
---------------------|---------------------|
---------------------|---------------------|
--2----2-4-5-4-5-4---|--2-0-2-4-5-4-5-4----|


Chorus
----------------------------------------------------|
--------6-7-8---9-8---------------------------------|
--------------------9---------9-11-99-11-9/11-------|
--7----------------------9----------------------7---|



Hope this helps and Enjoy!
Suggest correction
comments
print report bad tab
2 comments total.
0 reply
TandyJake 83 Dec 13, 2012 10:34 AM

Sorry, I messed up the last part of the chorus. I'll have that fixed soon

0 reply
f_anes 10 May 28, 2017 07:25 PM

Chorus
----------------------------------------------------|
--------6-7-8---9-8---------------------------------|
--------------------9---------7-9-77-88-7/9-------|
--7----------------------9----------------------7---|

guest
You may want to rate the tab now too:
select rating
Wanna post a correction for this tab? Suggest correction