Oops, an error
Loading. Please wait.

Face Tab

632 views 1 this week
no commentswrite comment
1 2 3 4 5
please rate
add to favorites
launch autoscroll
font size
0
reset
how to read this tab
guitar tuner
Tab Pro tools
  • play this tab
  • loop segment
  • change instrument
  • show fretboard
  • metronome
×
Best way to learn
"Face"
Autoscroll
slow
fast
+/-
esc
set tempo
stop
Contributor
-------------------------------------------------------------------------------
                             FACE - Bell X1
-------------------------------------------------------------------------------
Tabbed by: sbaxter675
Email: simonbaxteris@hotmail.com

Tuning:EADGBe

This is a great song by a great band but Bell X1 tabs are hard to come by so I thought 
start contributing to UG. This is my first tab so go easy on me.

RIFF 1
e|----------------------------------------------------------------|
B|----------------------------------------------------------------|
G|----------------------------------------------------------------|
D|----------------------------------------------------------------|
A|--2---------------------2--------------------3------------------|
E|----0-0-2-2-3-3/5-3-2-----0-0-2-2-3-3/5-3-2----0-0-2-2-3-3/5-3-2|

e|------------------------|
B|------------------------|
G|------------------------|
D|------------------------| (REPEAT)
A|--3---------------------|
E|----0-0-2-2-3-3/8-8-7---|


(No guitar is played during the first verse but the bass plays these notes if your 
on your own)
G|--------------------------|
D|--------------------------|
A|--------------------------|
E|--0--0--10--10--8--8-8--8-|

How I know
Go bow end send mend bend pretend
Shut your face again
Bleed seed need read breath on my knees
How I choose to breath
Lie cry learn grow slow false start
How I build my wall
Hate wait bait kiss or taste the place
And make weather in my face

PLAY RIFF1 ONCE

Second Verse and Chorus
    E     D       C
e|--------------------------------------|
B|--------------------------------------|
G|--------------------------------------|
D|---2-/----12---10--10--10--10--10--10-| Check song for strumming
A|---2-/----12---10--10--10--10--10--10-|
E|-0-----10------8---8---8---8---8---8--|

How I choose bruise loose win sin bin tease please
Better have her on her knees
Play pray say rock feel kneel dream
How I choose to scream
Shout wake sleep need to touch her deep
Change
Rearrange
Fate wait weight kiss or taste the place
And make weather in my face

CHORUS
I wanna be the only one that you know
Happily your placebo
I wanna be the only one that you know
Cos I adore you
I wanna be the only one that you know
Don't believe your placebo
I wanna be the only one that you know


(The third verse has no guitar at the start and the bass just plays an open E at a weird 
then this riff comes in. I think the bass plays it too.)
RIFF2
e|-------------------------------|
B|-------------------------------|
G|-------------------------------|
D|-------------------------------|
A|---------5h7---------5---------|
E|-0--5h7-------0--5h7-----------|

How I know
Go bow end send mend bend pretend
Shut your face again
Bleed seed need read breath on my knees
How I choose to breath

(Play RIFF2)
Lie cry learn grow slow false start
How I build my wall
Hate wait bait kiss or taste the place
And make weather in my face

REPEAT CHORUS (X2)

(the second time the chorus is played a heavily distorted guitar plays the same chords 
before quietly in the background)

Repeat RIFF1

END


| /  slide up
| \  slide down
| h  hammer-on
| p  pull-off
| ~  vibrato
| +  harmonic
| x  Mute note
===============================================================================
comments
We did not receive enough feedback on this tab! Please rate:
print report bad tab
1 2 3 4 5
I want to post or [tab]
guest
You may want to rate the tab now too:
select rating
Please do not post tabs as comments. Select "correction" instead!