Oops, an error
Loading. Please wait.

Tongue Tab

998 views 1 this week
no commentswrite comment
1 2 3 4 5
2 more votes to show rating
add to favorites
launch autoscroll
font size
0
reset
how to read this tab
guitar tuner
Autoscroll
slow
fast
+/-
esc
set tempo
stop
Help us to improve Ultimate-Guitar.com Take our survey!
×
Bell X1
Tongue
Music In Mouth

best song on album...

this one's or you

standard tuning
Intro
|---------------------------------------------|
|---------------------------------------------|
|---------------------------------------------|
|-9--(9)---x-9--(9)---x-9--(9)---x-9--(9)---x-|
|-9b--7-77-x-9b--7-77-x-9b--7-77-x-9b--7-77-x-|
|-----0-00-x-----0-00-x-----0-00-x-----0-00-x-|

this also used...
|----------------------------------|
|----------------------------------|
|-1212121211111111-9-9-9-911111111-|
|--9-9-9-9-9-9-9-9-9-9-9-9-9-9-9-9-|
|----------------------------------|
|----------------------------------|
vary it a little

                Em
This one's for you,
                C
This one's for me,
                Em
This one's for you,
             C
What must I be?
           Am               Em
I've got a nervous feeling, over you
     Am                      Em
But who am I fooling, I like airline food

                 Am
I need to feel whole
               Em
I need to feel young again
              Am
I need to be bold
                    Em
And start using my tongue again
                        Am
They can laugh as they cry
                      Em
They can cut till I bleed
             Am         C
But I ain't losing
                    Em         C
'Cos this one's for me
               Em              C   Am
This one's for me

                Em
This one's for you,
               C
This one's for me,
               Em
This one's for you, for you, for you,
                              C
Tell me what the fuck must i do?

I've got a nervous feeling, and its over you,
Who am I fooling, i like airline food
 
And now i need to feel whole,
I need to feel young again,
I need to be bold,
Start using my tongue again
They can laugh as I cry
They can cut 'til I bleed,
But I ain't losin',
'Cos this one's for me...

Outro
|-------------------------------------------------|
|-------------------------------------------------|
|-------14b----------------------14b--------------|
|-------------------------------------------------|
|-------------------------------------------------|
|-12-12-----x12-12-12/10--x12-12-----x12-12-12/10-|

|-0-0-x0-0-x2-2----------|-0-0-x0-0-x2-2----------|
|-0-0-x1-1-x3-3----------|-0-0-x1-1-x3-3----------|
|-0-0-x0-0-x2-2----------|-0-0-x0-0-x2-2----------|
|-2-2-x2-2-x0-0-x8/7-x\9-|-2-2-x2-2-x0-0-x8/7-x\9-|
|-2-2-x3-3-xx-x-x8/7-x\9-|-2-2-x3-3-xx-x-x8/7-x\9-|
|-0-0-xx-x-xx-x-x6/5-x\7-|-0-0-xx-x-xx-x-x6/5-x\7-|

and you're done,

peace out
Suggest correction
Give kudos to tab author, rate the tab!
1 2 3 4 5
comments
print report bad tab
guest
You may want to rate the tab now too:
select rating
Wanna post a correction for this tab? Suggest correction