Oops, an error
Loading. Please wait.

Lovers Live Longer Bass

34 views 3 this week
no commentswrite comment
1 2 3 4 5
3 more votes to show rating
add to favorites
launch autoscroll
font size
0
reset
guitar tuner
×
Best way to learn
"Lovers Live Longer"
Autoscroll
slow
fast
+/-
esc
set tempo
stop
Author
Difficulty
  follow
intermediate
About this tab version
Standard Tuning, the parts in the verse that cover the E chord may not be fully correct but they fit the song to the best of my hearing. Was this info helpful? Yes No
[Intro]

G|-----------------------------------------------------------------|
D|---------4---7-----------6---9---7-----7-----7-------------------|
A|-5-----5---------7-----7-----------------7-----------------------|
E|-------------------------------------------------5---------------|

[Chorus]

G|-----------------------------------------------------------------|
D|---------4---7-----------6---9---7-----7-----7-------------------|
A|-5-----5---------7-----7-----------------7-------------------4---|
E|-------------------------------------------------5-----5-7-------|

G|-----------------------------------------------------------------|
D|---------4---7-----------6---9---7-----7-----7-------------------|
A|-5-----5---------7-----7-----------------7-------------------4---|
E|-------------------------------------------------5-----5-7-------|

G|-----------------------------------------------------------------|
D|---------4---7-----------6---9---7-----7-6-----6-4-----4---------|
A|-5-----5---------7-----7---------------------------------7-----7-|
E|-----------------------------------------------------------------|

G|-----------------------------------------------------------------|
D|---------4---7-----------6---9---7-----7-----7-------------------|
A|-5-----5---------7-----7-----------------7-----------------------|
E|-------------------------------------------------5---------------|

[Verse]

G|-----------------------------------------------------------------|
D|---------4---7-----------6---9---7-----7-----7-------------------|
A|-5-----5---------7-----7-----------------7-------------------4---|
E|-------------------------------------------------5-----5-7-------|

G|-----------------------------------------------------------------|
D|---------4---7-----------6---9---7-----7-----7-------------------|
A|-5-----5---------7-----7-----------------7-----------------------|
E|-------------------------------------------------5---------------|

[Chorus]

G|-----------------------------------------------------------------|
D|---------4---7-----------6---9---7-----7-----7-------------------|
A|-5-----5---------7-----7-----------------7-------------------4---|
E|-------------------------------------------------5-----5-7-------|

G|-----------------------------------------------------------------|
D|---------4---7-----------6---9---7-----7-----7-------------------|
A|-5-----5---------7-----7-----------------7-------------------4---|
E|-------------------------------------------------5-----5-7-------|

G|-----------------------------------------------------------------|
D|---------4---7-----------6---9---7-----7-6-----6-4-----4---------|
A|-5-----5---------7-----7---------------------------------7-----7-|
E|-----------------------------------------------------------------|

G|-----------------------------------------------------------------|
D|---------4---7-----------6---9---7-----7-----7-------------------|
A|-5-----5---------7-----7-----------------7-----------------------|
E|-------------------------------------------------5---------------|

[Instrumental]

G|-----------------------------------------------------------------|
D|---------4---7-----------6---9---7-----7-6-----6-4-----4---------|
A|-5-----5---------7-----7---------------------------------7-----7-|
E|-----------------------------------------------------------------|

G|-----------------------------------------------------------------|
D|---------4---7-----------6---9---7-----7-----7-------------------|
A|-5-----5---------7-----7-----------------7-----------------------|
E|-------------------------------------------------5---------------|

[Verse]

G|-----------------------------------------------------------------|
D|---------4---7-----------6---9---7-----7-----7-------------------|
A|-5-----5---------7-----7-----------------7-------------------4---|
E|-------------------------------------------------5-----5-7-------|

G|-----------------------------------------------------------------|
D|---------4---7-----------6---9---7-----7-----7-------------------|
A|-5-----5---------7-----7-----------------7-----------------------|
E|-------------------------------------------------5---------------|

[Chorus]

G|-----------------------------------------------------------------|
D|---------4---7-----------6---9---7-----7-----7-------------------|
A|-5-----5---------7-----7-----------------7-------------------4---|
E|-------------------------------------------------5-----5-7-------|

G|-----------------------------------------------------------------|
D|---------4---7-----------6---9---7-----7-----7-------------------|
A|-5-----5---------7-----7-----------------7-------------------4---|
E|-------------------------------------------------5-----5-7-------|

G|-----------------------------------------------------------------|
D|---------4---7-----------6---9---7-----7-6-----6-4-----4---------|
A|-5-----5---------7-----7---------------------------------7-----7-|
E|-----------------------------------------------------------------|

G|-----------------------------------------------------------------|
D|---------4---7-----------6---9---7-----7-----7-------------------|
A|-5-----5---------7-----7-----------------7-----------------------|
E|-------------------------------------------------5---------------|

[Outro/half chorus]

G|-----------------------------------------------------------------|
D|---------4---7-----------6---9---7-----7-6-----6-4-----4---------|
A|-5-----5---------7-----7---------------------------------7-----7-|
E|-----------------------------------------------------------------|

G|-----------------------------------------------------------------|
D|---------4---7-----------6---9---7-------------------------------|
A|-5-----5---------7-----7-------------------7---------------------|
E|-------------------------------------------------------5---------|



Suggest correction
Give kudos to tab author, rate the tab!
1 2 3 4 5
comments
print report bad tab
guest
You may want to rate the tab now too:
select rating
Wanna post a correction for this tab? Suggest correction