Oops, an error
Loading. Please wait.

Heartbeat Tab

758 views 1 this week
no commentswrite comment
1 2 3 4 5
3 more votes to show rating
add to favorites
launch autoscroll
font size
0
reset
how to read this tab
guitar tuner
Autoscroll
slow
fast
+/-
esc
set tempo
stop
Help us to improve Ultimate-Guitar.com Take our survey!
×
Author
Difficulty
intermediate
Heartbeat - Bellarive
Tabbed by ZachWGuitar

=== (Let ring out)
>>> (Tremolo Pick)


Lead Guitar 1 (Below for Rhythm Guitar 2)

INTRO (Drive w/DELAY)
e|------7-----12-12-12-12-12-12-11-----------7--------------------|
B|----7---7------------------------12-------7--7--11-11-11-12-12--|
G|----------------------------------------------------------------|
D|-9-------------------------------------9------------------------|
A|----------------------------------------------------------------| x4
E|----------------------------------------------------------------|

e|--------------------|
B|--14--16----14------|
G|----------------16--|
D|--------------------|
A|--------------------|
E|--------------------|

VERSE 1 (Clean w/Delay)
"I hear the sound…"
e|----------------------11===--------------------11------------|
B|---------12----9===------------------12----9------12=====----|
G|--9--11------9-----------------9--11-----9-------------------|
D|-------------------------------------------------------------| 
A|-------------------------------------------------------------| x2
E|-------------------------------------------------------------|

"I feel your heartbeat…"    "I just want to stay here,…"
e|--------------------|     |-----------------------------------------------------|
B|--------------------|     |-----------------------------------------------------|
G|----------8===------|     |-------11---11---11---11---11--13---13--13---13------|
D|--9--11-------------|     |---9===---9----9----9----9-------9----9---9----9===--|
A|--------------------| x2  |-----------------------------------------------------|
E|--------------------|     |-----------------------------------------------------|

CHORUS (Drive w/DELAY)
"I just want to stay… I just want to stay here…"  
e|------------------------------------------------------------------|
B|------------------------------------------------------------------|
G|------10------------9-----------10------------9-----------4===----|
D|---------(x4)---------(x4)---------(x4)---------(x4)--------------|    
A|---8-------------7-----------8-------------7-----------2===-------| x2
E|------------------------------------------------------------------|

"I just want to stay here,…"
e|-----------------------------------------------------|
B|-----------------------------------------------------|
G|-------11---11---11---11---11--13---13--13---13------|
D|---9===---9----9----9----9-------9----9---9----9===--|  --->  INTRO
A|-----------------------------------------------------| 
E|-----------------------------------------------------| 

VERSE 1 
CHORUS

CHORUS 2 (Before Solo)
e|------------------------------|
B|------------------------------|
G|------------------------------|
D|--10-------11---------10------|    
A|-----(x4)-----(x4)-------(x4)-| x2
E|--8--------9----------8-------|

BRIDGE (Drive)
e|-----------------------------|
B|-----------------------------|
G|--4--------6--------10-------|
D|----(x4)-----(x4)------(x4)--|    
A|--2--------4--------8--------| x2
E|-----------------------------|

SOLO (Overdrive w/Delay)
e|----------------------------------------------------|
B|----------------------------------------------------|
G|-15>>>>16>>>>>--------------15>>>>16>>>>>-----------|
D|--------------14>>13>>16>>>>-------------13>>>14===-| 
A|----------------------------------------------------|
E|----------------------------------------------------|

Pause---

CHORUS 3 (Drive)
e|-------------------------------------|
B|-------------------------------------|
G|--------------------10---------------|
D|--4--------6--------10-(x4)--10------|    (First time, Hits)
A|--4-(x4)---6-(x4)---8--------10-(x4)-| x2 (Second time, strumming)
E|--2--------4-----------------8-------|

e|----------------------------------------------------|
B|----------------------------------------------------|
G|--------------------10------------------------------|
D|--4--------6-----------(x4)--10-10---13-13--11-11---|    
A|----(x4)-----(x4)---8-------------------------------| x2
E|--2--------4-----------------8--8----11-11--9--9----|

CHORUS OUTRO (Drive w/DELAY)
e|---------------14--11--14--11-------------------------|
B|-11--11---12------------------14----------------------|
G|---11--11--------------------------10-----------------|
D|--------------------------------------(x4)---10-------|    
A|-----------------------------------8------------(x4)--| x4
E|---------------------------------------------8--------|

End on 
e|--------|
B|--16===-|
G|--------|
D|--------|
A|--------|
E|--------|


============================================================================

Rhythm Guitar 2 (Thought I would divide them so its easier)

INTRO (Drive)
e|---------------------------------------|
B|---------------------------------------|
G|-----------10--------------------------|
D|--10-------10-(x4)---11-11-xx--11-11---|    (First time, Hits)
A|--10-(x8)--8---------11-11-xx--11-11---| x2 (Second time, strumming)
E|--8------------------9--9--xx--9--9----|

VERSE 1 - Guitar 1

CHORUS (Drive)
"I just want to stay… I just want to stay here…"  
e|-----------|
B|-----------|
G|-----------|
D|--10-------|    ---> INTRO
A|--10-(x16)-| x2
E|--8--------|

VERSE 1 - Guitar 1
CHORUS

CHORUS 2 (Before Solo/During Solo)
e|------------------------------|
B|------------------------------|
G|------------------------------|
D|--10-------11---------10------|    
A|--10-(x4)--11-(x4)----10-(x4)-| x2
E|--8--------9----------8-------|

Pause---

CHORUS 3 / OUTRO (Drive)
e|-------------------------------------|
B|-------------------------------------|
G|--------------------10---------------|
D|--4--------6--------10-(x4)--10------|    
A|--4-(x4)---6-(x4)---8--------10-(x4)-| x8
E|--2--------4-----------------8-------|
Suggest correction
Give kudos to tab author, rate the tab!
1 2 3 4 5
comments
print report bad tab
guest
You may want to rate the tab now too:
select rating
Wanna post a correction for this tab? Suggest correction