Oops, an error
Loading. Please wait.

The Unwelcome Guest Tab

10 views 1 this week
no commentswrite comment
1 2 3 4 5
3 more votes to show rating
add to favorites
launch autoscroll
font size
0
reset
how to read this tab
guitar tuner
Autoscroll
slow
fast
+/-
esc
set tempo
stop
Help us to improve Ultimate-Guitar.com Take our survey!
×
Author
Difficulty
novice
First tab, hard to find anything by these guys online. Lyrics might be inaccurate, hard to tell at times.

[Verse 1]
              F
The unwelcome guest
            Dm
Came in the night
                   Am
Never took off his coat
                Bb
Put a record on slow
               F
Said I shall reveal
                 Dm
The debt you have made
                      Am  
From which you've been kept
               Bb
But will not be saved
               Dm
A ghost from the West
          Bb
Waited till dawn
                    F
And stole from your light
            Am
Then he was gone

[Solo 1]
e|-------------------------|-------------------------|
B|-------------------------|-------------------------|
G|-------------------------|-------------3~~~~~~~~~~-|
D|---3-5-7-5-3-------------|---3-5-7-5-3-------------|
A|-5-----------1~~~~~~~~~~-|-5-----------------------|
E|-------------------------|-------------------------|


[Verse 2]
            F
There was a fire
          Dm
Carried by blades
              Am
Now I could retire
              Bb
Or beg off in shame
              F 
But I will not beg
             Dm
No I will not crave
           Am  
I lose all desire
           Bb
Let it pass away
              Dm
Till I'm just born
       Bb 
Skeleton drone
           F
Only black stone
           Am
To be left alone

[Solo 2]

e|-------------------------|-------------------------|
B|-------------------------|-------------------------|
G|-------------------------|-------------3~~~~~~~~~~-|
D|---3-5-7-5-3-------------|---3-5-7-5-3-------------|
A|-5-----------1~~~~~~~~~~-|-5-----------------------|
E|-------------------------|-------------------------|

e|-------------------------|-------------------------|
B|-------------------------|-10/11\10----------------|
G|----10-12-12b-12-10------|----------12-10-12-10----|
D|-12-----------------12~~~|----------------------8~~|
A|-------------------------|-------------------------|
E|-------------------------|-------------------------|



************************************

| ~  Vibrato
| /  Slide up
| \  Slide down
| b  Bend

************************************
Suggest correction
Give kudos to tab author, rate the tab!
1 2 3 4 5
comments
print report bad tab
guest
You may want to rate the tab now too:
select rating
Wanna post a correction for this tab? Suggest correction