Oops, an error
Loading. Please wait.

Act Of The Apostle Ii Bass Tab

1,205 views 1 this week
no commentswrite comment
1 2 3 4 5
1 last vote to show rating
add to favorites
launch autoscroll
font size
0
reset
guitar tuner
Autoscroll
slow
fast
+/-
esc
set tempo
stop
Help us to improve Ultimate-Guitar.com Take our survey!
×
Author
Difficulty
intermediate
Belle and Sebastian
Act of the Apostle II

Main pt.1(0:23)

__________
G-------------1-----1-4-------|
D---------2-4--4-2-2----------|
A------0-4--------4----4-3-2--|
E-0-2-3------4--------------2-|

G-----------------------|
D----------6------------|
A-2-2-2-4-4-4-5-5-3-5-7-|
E----2-----------5------|

(0:47)

G--------1-----1-4-------|
D----2-4--4-2-2----------|
A-0-4--------4----4-3-2--|
E-------4--------------2-|

G-----------------------|
D----------6------------|
A-2-2-2-4-4-4-5-5-3-5-7-|
E----2-----------5------|

Chorus (1:06)
"...I'm A Genius..."
____________
G---2-4--2--7-2-4-5-4-2-|
D--4----4-4--4---------4|
A-5----5----------------|
E-----------------------|

G--------------------------|
D---2-4--------------4-2-4-|
A--4-----------------------|
E-5-----5-5-5-4-3-2-2-2---2|

G-------------------------------------------------|
D-------------------------4-------2-4-------------|
A-3(hold)2(hold)0-0-0------3-2-0-4------------555-|
E--------------------4-3-2-----------000222333----|

Main pt(1:44)
"...The Bible's My Tool..."
____________
G--------1-----1-4-------|
D----2-4--4-2-2----------|
A-0-4--------4----4-3-2--|
E-------4--------------2-|

G-----------------------|
D----------6------------|
A-2-2-2-4-4-4-5-5-3-5-7-|
E----2-----------5------|

G---2-4--2--7-2-4-5-4-2-|
D--4----4-4--4---------4|
A-5----5----------------|
E-----------------------|

Chorus(2:04)
"...And I Tune Out..."
___________
G--------------------------|
D---2-4--------------4-2-4-|
A--4-----------------------|
E-5-----5-5-5-4-3-2-2-2---2|

G------------------------------|
D-------------------------4----|
A-3(hold)2(hold)0-0-0------3-2-|
E--------------------4-3-2-----|

Intro of 2nd pt.(3:00)

________________
G-2-222-2-222-0-000----------|
D------2-----2-----2-4-4-0-2-|
A----------------------------|
E----------------------------|

G-2-222-2-222-0-000----------|
D------2-----2-----2-4-4-0-2-|
A----------------------------|
E----------------------------|

G-2-222-2-222-0-000----------|
D------2-----2-----2-4-4-0-2-|
A----------------------------|
E----------------------------|

Main pt. of 2nd pt.(3:21)
"...The City Was Losing It's Appeal..."
________________________
G-4-42-----------22---22----|
D-----40------242--242--242-|
A-----------00--------------|
E---------------------------|

G-4-42-----------22----|
D-----40-23h--242--242-|
A-----------00---------|
E----------------------|

Chorus of 2nd pt.(3:39)
"...Oh, If I Could Make Sense Of It All..."
______________________
G-0-3-0----55------5hold-|
D------0-3---3hold-3-----|
A------------------------|
E------------------------|

G-0-3-0----55------5hold-|
D------0-3---3hold-3-----|
A------------------------|
E------------------------|

Ending(3:55)

___________
G-0-3-5--------------5-7------------------|
D-----------9-----9-----------------------|
A------7-777-7-777-77---7-777-7-777-7hold-|
E----------------------------7------------|

Tabbed By: Nick
If there is a problem with it,
or if you wish to contact me:

   ---email---
fbass_13@yahoo.com
   ---email---

Notes:

+ Some of the times might be off by a second, my music player's timer doesn't work right.

+ The End my look and sound a bit confusing, but just listen to it and then look at the 
and play it, it'll make sense after a while, even if you get frustrated, like i did.

+++ Well, there you have it, Act of the Apostle II, by Belle and Sebastian +++
Suggest correction
Give kudos to tab author, rate the tab!
1 2 3 4 5
comments
print report bad tab
guest
You may want to rate the tab now too:
select rating
Wanna post a correction for this tab? Suggest correction