Oops, an error
Loading. Please wait.

Another Sunny Day Bass Tab

3,313 views 6 this week
no commentswrite comment
1 2 3 4 5
please rate
add to favorites
launch autoscroll
font size
0
reset
guitar tuner
Autoscroll
slow
fast
+/-
esc
set tempo
stop
Help us to improve Ultimate-Guitar.com Take our survey!
×
Author
Difficulty
novice
BELLE AND SEBASTIAN
ANOTHER SUNNY DAY


Intro(0:10)

__________
G---------|
D-6-666---|
A------67-|
E---------|

G---------|
D-6-666---|
A------67-|
E---------|

G---------|
D-6-666---|
A------67-|
E---------|

G---------|
D-6-666---|
A------67-|
E---------|

Main pt.(0:15)
"...Another Sunny Day..."
_____________
G--------------|
D-6-666-6-6668-|
A------6-------|
E--------------|

G--------------|
D------------6-|
A-6-666-6-666--|
E------6-------|

G------------10-|
D-8-888-8-888---|
A------8--------|
E---------------|

G----------------|
D------10-----10-|
A-8-888--8-888---|
E----------------|

G-6-666-6-6668-|
D------6-------|
A--------------|
E--------------|

G--------------|
D-6-666-6-6668-|
A------6-------|
E--------------|

G-8-888-8-888-10-|
D------8---------|
A----------------|
E----------------|

G--------------|
D-6-666-6-666--|
A------6-----6-|
E--------------|

Main pt.(0:39)
"...Another Rainy Day..."
_____________
G--------------|
D-6-666-6-6668-|
A------6-------|
E--------------|

G--------------|
D------------6-|
A-6-666-6-666--|
E------6-------|

G------------10-|
D-8-888-8-888---|
A------8--------|
E---------------|

G----------------|
D------10-----10-|
A-8-888--8-888---|
E----------------|

G-6-666-6-6668-|
D------6-------|
A--------------|
E--------------|

G--------------|
D-6-666-6-6668-|
A------6-------|
E--------------|

G-8-888-8-888-10-|
D------8---------|
A----------------|
E----------------|

G--------------|
D-6-666-6-666--|
A------6-----6-|
E--------------|

Main pt.(1:04)

_____________
G--------------|
D-6-666-6-6668-|
A------6-------|
E--------------|

G--------------|
D------------6-|
A-6-666-6-666--|
E------6-------|

G------------10-|
D-8-888-8-888---|
A------8--------|
E---------------|

G----------------|
D------10-----10-|
A-8-888--8-888---|
E----------------|

G-6-666-6-6668-|
D------6-------|
A--------------|
E--------------|

G--------------|
D-6-666-6-6668-|
A------6-------|
E--------------|

G-8-888-8-888-10-|
D------8---------|
A----------------|
E----------------|

G--------------|
D-6-666-6-666--|
A------6-----6-|
E--------------|

Main pt.(1:29)
"...Another Day In June..."
_____________
G--------------|
D-6-666-6-6668-|
A------6-------|
E--------------|

G--------------|
D------------6-|
A-6-666-6-666--|
E------6-------|

G------------10-|
D-8-888-8-888---|
A------8--------|
E---------------|

G----------------|
D------10-----10-|
A-8-888--8-888---|
E----------------|

G-6-666-6-6668-|
D------6-------|
A--------------|
E--------------|

G--------------|
D-6-666-6-6668-|
A------6-------|
E--------------|

G-8-888-8-888-10-|
D------8---------|
A----------------|
E----------------|

G--------------|
D-6-666-6-666--|
A------6-----6-|
E--------------|

Main pt.(1:53)
"...Now Everybody's Gone..."
_____________
G--------------|
D-6-666-6-6668-|
A------6-------|
E--------------|

G--------------|
D------------6-|
A-6-666-6-666--|
E------6-------|

G------------10-|
D-8-888-8-888---|
A------8--------|
E---------------|

G----------------|
D------10-----10-|
A-8-888--8-888---|
E----------------|

G-6-666-6-6668-|
D------6-------|
A--------------|
E--------------|

G--------------|
D-6-666-6-6668-|
A------6-------|
E--------------|

G-8-888-8-888-10-|
D------8---------|
A----------------|
E----------------|

G----------------|
D------10-----10-|
A-8-888--8-888---|
E----------------|

G-8-888-8-888-10-|
D------8---------|
A----------------|
E----------------|

G--------------|
D-6-666-6-666--|
A------6-----6-|
E--------------|

Main pt.2(2:24)

______________
G---------------------|
D-65----------------7-|
A---864---6-6--46-66--|
E------864---68-------|

G--------------------|
D-865----------------|
A----864--8-8--68-88-|
E-------86---68------|

Main pt.2 ending(2:37)

_____________
G-6-666-6-6668-|
D------6-------|
A--------------|
E--------------|

G--------------|
D-6-666-6-6668-|
A------6-------|
E--------------|

G-8-888-8-888-10-|
D------8---------|
A----------------|
E----------------|

G--------------|
D-6-666-6-666--|
A------6-----6-|
E--------------|

Main pt.(2:48)
"...There's Something in my eye..."
_____________
G--------------|
D-6-666-6-6668-|
A------6-------|
E--------------|

G--------------|
D------------6-|
A-6-666-6-666--|
E------6-------|

G------------10-|
D-8-888-8-888---|
A------8--------|
E---------------|

G----------------|
D------10-----10-|
A-8-888--8-888---|
E----------------|

G-6-666-6-6668-|
D------6-------|
A--------------|
E--------------|

G--------------|
D-6-666-6-6668-|
A------6-------|
E--------------|

G-8-888-8-888-10-|
D------8---------|
A----------------|
E----------------|

G----------------|
D------10-----10-|
A-8-888--8-888---|
E----------------|

G-8-888-8-888-10-|
D------8---------|
A----------------|
E----------------|

G--------------|
D-6-666-6-666--|
A------6-----6-|
E--------------|

Main pt./end(3:19)
"...The Lovin is a mess..."
_____________
G--------------|
D-6-666-6-6668-|
A------6-------|
E--------------|

G--------------|
D------------6-|
A-6-666-6-666--|
E------6-------|

G------------10-|
D-8-888-8-888---|
A------8--------|
E---------------|

G----------------|
D------10-----10-|
A-8-888--8-888---|
E----------------|

G-6-666-6-6668-|
D------6-------|
A--------------|
E--------------|

G--------------|
D-6-666-6-6668-|
A------6-------|
E--------------|

G-8-888-8-888-10-|
D------8---------|
A----------------|
E----------------|

G----------------|
D------10-----10-|(let the ten ring until it starts back up again)
A-8-888--8-888---|
E----------------|

G--------------|
D-6-666-6-666--|
A------6-----6-|
E--------------|

Ending(3:52)

___________
G---------|
D-65------|
A---864---|
E------64-|

Tabbed By: Nick
If there is a problem with it,
or if you wish to contact me:

   ---email---
fbass_13@yahoo.com
   ---email---

Notes:

+ Some of the times might be off by a second, my music player's timer doesn't work right.

+ Throughout the song there are some 10's, they should be played like that and not like 
catch my drift?

+++  Well, there you have it, Another Sunny Day, by Belle and Sebastian   +++
Suggest correction
Give kudos to tab author, rate the tab!
1 2 3 4 5
comments
print report bad tab
guest
You may want to rate the tab now too:
select rating
Please do not post tabs as comments. Select "correction" instead!