Oops, an error
Loading. Please wait.

Funny Little Frog Bass Tab

version 1
version 1

Whole song

Interactive

5,534 views 3 this week
no commentswrite comment
1 2 3 4 5
please rate
add to favorites
launch autoscroll
font size
0
reset
guitar tuner
Autoscroll
slow
fast
+/-
esc
set tempo
stop
Help us to improve Ultimate-Guitar.com Take our survey!
×
Author
Difficulty
intermediate
Funny Little Frog by Belle and Sebastian	

		G |--------------------------------------------------|
Verse 1	         D |--9---9-8---8-7---7-6-----------------------------|     
		A |----9------9-----9------9-7-----------------------|
		E |-------------------------------4-5-7--------------|
	

		G |----------------------------------------------|
Verse		D |----------------------------------------------|     
		A |---------2---5-5-5-2-----------2---5-6-6------|
		E |--3-3-3---5-----------5-3-3-3---5-------------|
	

	         G |------------------------------------------------------|
Chorus		D |----------9-----7-9-7--------------7---7-9-7----------|
  		A |-7-7-10---10---------9-7-5-5-9---9---------9---7------|
		E |----------------------------------------------------7-|
			
		G|--------------------------------------6-8---|
After chorus 	D|----------9----7-9-7---------9---9----------| 
		A|-7-7-10---10--------9--9-9---9--------------|
		E|--------------------------------------------|
	


Suggest correction
Give kudos to tab author, rate the tab!
1 2 3 4 5
comments
print report bad tab
guest
You may want to rate the tab now too:
select rating
Please do not post tabs as comments. Select "correction" instead!