Oops, an error
Loading. Please wait.

Funny Little Frog Bass Tab

version 2
version 2

Whole song

Interactive

4,542 views 6 this week
no commentswrite comment
1 2 3 4 5
excellent!
x 3
add to favorites
launch autoscroll
font size
0
reset
guitar tuner
Autoscroll
slow
fast
+/-
esc
set tempo
stop
Help us to improve Ultimate-Guitar.com Take our survey!
×
Difficulty
novice
Funny Little Frog by Belle and SebastianUsed the existing tab, but improved on it so it 
everything.You'll have to listen for the timing but it's not hard to get it.
                 Intro
G |---------------------------------------------------|
D |--9---9-8---8-7---7-6------------------------------|
A |----9------9-----9------9-7------------------------|
E |-------------------------------4-5-7---------------|

                 Chorus
G |---------------------------------------------------|
D |----------0-----7-----------------0----------------|
A |---------2-2--5---5/7-5-2--------2-2--5--6-6-------|
E |--2-3-3-3-----------------5-3-3-3------------------|

                 1st Verse
G |---------------------------------------------------|
D |--------9---7-7-7h9-7-----------7--7-7-7h9-7-------| (x2)
A |-7-7-710-10-----------9-7-5-5-59-9-----------9-----|
E |-----------------------------------------------7---|

G |----------------------------------6-8--------------|
D |--------9---7-7-7h9-7--------8--9------------------|
A |-7-7-710-10-----------7-9-9-9-9--------------------|
E |--------------------------------------6-7-8--------|

                  Pre-Chorus
G |---------------------------------------------------|
D |--9---9-8---8-7---7-6------------------------------|
A |----9------9-----9------9-7------------------------|
E |-------------------------------4-5-7---------------|

                  Chorus
G |---------------------------------------------------|
D |----------0-----7-----------------0-----7----------|
A |---------2-2--5---5-7-5-2--------2-2--5---5-7-5-2--|
E |--2-3-3-3-----------------5-3-3-3-----------------5|

G |---------------------------------------------------|
D |----------0----------------------------------------|
A |---------2-2--5------------2-4-2--5*-6-6-----------|
E |--2-3-3-3--------0-2-3-x-5-------------------------|

                  2nd Verse
G |---------------------------------------------------|
D |--------9---7-7-7h9-7-----------7--7-7-7h9-7-------| (x2)
A |-7-7-710-10-----------9-7-5-5-59-9-----------9-----|
E |-----------------------------------------------7---|

G |-------------------------------------9-7-------------|
D |--------9---7-7-7h9-7-----------7--7-----9-7---------|
A |-7-7-710-10-----------9-7-5-5-59-9-----------10-7/5--|
E |---------------------------------------------------7-|

G |----------------------------------6-8--------------|
D |--------9---7-7-7h9-7--------8--9------------------|
A |-7-7-710-10-----------7-9-9-9-9--------------------|
E |--------------------------------------6-7-8--------|

                 Pre-Chorus
G |---------------------------------------------------|
D |--9---9-8---8-7---7-6------------------------------|
A |----9------9-----9------9-7------------------------|
E |-------------------------------4-5-7---------------|

                  Chorus
G |---------------------------------------------------|
D |----------0-----7-----------------0-----7----------|
A |---------2-2--5---5-7-5-2--------2-2--5---5-7-5-2--|
E |--2-3-3-3-----------------5-3-3-3-----------------5|

G |---------------------------------------------------|
D |----------0----------------------------------------|
A |---------2-2--5------------2-4-2--5*-6-6-----------|
E |--2-3-3-3--------0-2-3-x-5-------------------------|

                   Guitar Solo
G |---------------------------------------------------|
D |--------9---7-7-7h9-7-----------7--7-7-7h9-7-------| (x2)
A |-7-7-710-10-----------9-7-5-5-59-9-----------9-----|
E |-----------------------------------------------7---|

G |----------------------------------6-8--------------|
D |--------9---7-7-7h9-7--------8--9------------------|
A |-7-7-710-10-----------7-9-9-9-9--------------------|
E |--------------------------------------6-7-8--------|

G |----------------------------9-7--------------------|
D |--9---9-8---8-7---7-6-----------9-7----------------|
A |----9------9-----9------9-7---------10-7/5---------|
E |------------------------------------------7--------|

G |---------------------------------------------------|
D |----------0-----7-----------------0----------------|
A |---------2-2--5---5-7-5-2--------2-2--5--6-6-------|
E |--2-3-3-3-----------------5-3-3-3------------------|

                   3rd Verse
G |---------------------------------------------------|
D |--------9---7-7-7h9-7-----------7--7-7-7h9-7-------|
A |-7-7-710-10-----------9-7-5-5-59-9-----------9-----|
E |-----------------------------------------------7---|

G |---------------------------------------------------|
D |--------9---7-7-7h9-7-----------7--7---7h9-7-------|
A |-7-7-710-10-----------9-7-5-5-59-9-----------9-----|
E |-----------------------------------------------7---|

G |----------------------------------6-8--------------|
D |--------9---7-7-7h9-7--------8--9------------------|
A |-7-7-710-10-----------7-9-9-9-9--------------------|
E |--------------------------------------6-7-8--------|

                   Pre-Chorus
G |---------------------------------------------------|
D |--9---9-8---8-7---7-6------------------------------|
A |----9------9-----9------9-7------------------------|
E |-------------------------------4-5-7---------------|

                  Chorus
G |----------------7-5---------------------------------|
D |----------0---------7-5--------------0----7---------|
A |---------2-2--5---------8-5/3-------2-2-5--5-7-5-2--|
E |--2-3-3-3--------------------5-3-3-3---------------5|

G |---------------------------------------------------|
D |----------0----------------------------------------|
A |---------2-2--5------------2-4-5*------------------|
E |--2-3-3-3--------0-2-3-x-5-------------------------|

And there you go, there're certain notes here and there that I'm not too sure about, but 
definately better than the previous version, but still e-mail and corrections and 
to jakop@hotmail.co.uk
Suggest correction
Give kudos to tab author, rate the tab!
1 2 3 4 5
comments
print report bad tab
guest
You may want to rate the tab now too:
select rating
Wanna post a correction for this tab? Suggest correction