Oops, an error
Loading. Please wait.

Is It Wicked Not To Care Tab

version 1
version 1

Solo

Interactive

1,406 views 1 this week
1 commentread comment
1 2 3 4 5
accurate
x 1
add to favorites
launch autoscroll
font size
0
reset
how to read this tab
guitar tuner
Tab Pro tools
  • play this tab
  • loop segment
  • change instrument
  • show fretboard
  • metronome
Autoscroll
slow
fast
+/-
esc
set tempo
stop
Contributor
----------------------------------------------------------------------------
             IS IT WICKED NOT TO CARE - BELLE AND SEBASTIAN
----------------------------------------------------------------------------
Tabbed by:plabon
Email: pablovillar_@hotmail.com

Tuning:EADGBe

You have to play this bit twice. The chords in this song are: G# - C# - D# -A#m so it's 
played with capo on 1st fret so it's easier. THIS IS NOT RELATIVE TO CAPO.


e|-------4--8---4--8-8--6--4-4------8--6--4-4--------3---------------------|
B|-----4------4-----------------4--------------4--6------------------------|
G|-------------------------------------------------------------------------|
D|-------------------------------------------------------------------------|
A|-------------------------------------------------------------------------|
E|-------------------------------------------------------------------------|
comments
We did not receive enough feedback on this tab! Please rate:
print report bad tab
1 2 3 4 5
1 comment total.
0 reply
slarbiter wrote on July 13 2014, 07:30 pm

The notes are correct but it would be much easier to play is the form of D.

e|-------8----8--8-6------8-6--------------------|
B|------9----9------9-9------9-9-----------------|
G|-----8----8----------8--------8--10-12~--------|
D|-----------------------------------------------|
A|-----------------------------------------------|
E|-----------------------------------------------|

I want to post or [tab]
guest
You may want to rate the tab now too:
select rating
Please do not post tabs as comments. Select "correction" instead!