Oops, an error
Loading. Please wait.

Nothing In The Silence Chords

1,277 views 1 this week
no commentswrite comment
1 2 3 4 5
please rate
add to favorites
launch autoscroll
font size
0
reset
transpose
0
reset
display chords
guitar tuner
Autoscroll
slow
fast
+/-
esc
set tempo
stop
Help us to improve Ultimate-Guitar.com Take our survey!
×
Contributor
tesformes 100
Nothing In The Silence
By Belle & Sebastian

F#m                      Bm
Something set me thinking,
E                A
When i opened up my eyes
               Bm               E       
That there was nothing there to tell me
         Bm           E
I'd been listening to lies.

          F#m                Bm
But in silence there is truth
            E              A    
There is beauty, there is love
             Bm                E
There is nothing in the silence
          F#m
To be frightened of.

F#m                     
Her retreat and so few words
         E
Is the last thing you'd expect.
            Bm
But there's danger in assuming
           E
That she's being direct.
       Bm
Take a look behind her eyes
             E
And you will see.
               Bm
That she knows nothing of silence
E                F#m    
Silence can only come from me.

(Instrumental) X 2
e|-------2-2-2-0-2-----------2-0-2-4-5----4------2------0-2------------|
B|-0-2-5------------------------------------------------------2-3-3-2--|
G|---------------------------------------------------------------------|
D|---------------------------------------------------------------------|
A|---------------------------------------------------------------------|
E|---------------------------------------------------------------------|







F#m             Bm
Allow me then a little time
     E             A
To listen to their voices.
         Bm          E
It's the glamour and confusion,
         Bm               E
It's the rattling and the noises.

     F#m                    Bm
That obscure the truth, the beauty
        E
And the love.
          Bm           E
And their clarity that silence
       F#m
Is the guardian of.

              F#m
She talks of clarity and silence
   E
Of beauty and of truth.
     Bm
But search her heart for evidence
E       
Search herself for proof.

       Bm
Take a look behind her eyes
             E
And you will see.
               Bm
That she knows nothing of silence
E                F#m
Silence can only come from me.

(Instrumental) X 4
e|-------2-2-2-0-2-----------2-0-2-4-5----4------2------0-2------------|
B|-0-2-5------------------------------------------------------2-3-3-2--|
G|---------------------------------------------------------------------|
D|---------------------------------------------------------------------|
A|---------------------------------------------------------------------|
E|---------------------------------------------------------------------|

comments
We did not receive enough feedback on this tab! Please rate:
print report bad tab
1 2 3 4 5
I want to post or [tab]
guest
You may want to rate the tab now too:
select rating
Please do not post tabs as comments. Select "correction" instead!