Oops, an error
Loading. Please wait.

Paper Boat Chords

458 views 3 this week
no commentswrite comment
1 2 3 4 5
please rate
add to favorites
launch autoscroll
font size
0
reset
transpose
0
reset
display chords
guitar tuner
Autoscroll
slow
fast
+/-
esc
set tempo
stop
Help us to improve Ultimate-Guitar.com Take our survey!
×
Author
Difficulty
novice
Intro:  F A# F A# C

                      F
I think it's going to be all right

                        A#
 I think it's going to be just fine

                       F                        C
 I think it's going to get much better than before


                          F
 I think we're going to see the sun

                          A#
 I think we're going to have some fun,

                       F                         C
 I think we're going walk out through the open door


                   A#                    C
 And maybe when we wake up in the morning

                   A#                 C
 Maybe when the darkness starts to fade

              A#                             C
 Maybe in a paper boat we'll both just float away


                F
 Underneath the river trees

               A#
 Off towards a lazy sea

                F                            C
 Underneath the bridge that carries people home


                         F
 Past the church where Jesus saves

              A#
 Up and down upon the waves

              F                           C
 Sailing off towards adventures of our own


               A#                   C
 Maybe when we wake up in the morning,

              A#                    C
 Maybe when the darkness starts to fade

              A#                             C
 Maybe in a paper boat we'll both just float away

(trumpet)

F A# F C F A# F C

              A#                  C
Maybe when we wake up in the morning,

              A#                  C
Maybe when the trumpet starts to play

             A#                              C
Maybe in a paper boat we'll both just float away


                    A#          F
I think it's going to be good fun



Trumpet solo:

E||-----1--1-----1--------|--6------5-----------|
B||--3--------3-----------|---------------------|
G||-----------------------|---------------------|
D||-----------------------|---------------------|
A||-----------------------|---------------------|
E||-----------------------|---------------------|


     
-----1--1-----1--------|--6------5-----------|
--3--------3-----------|---------------------|
-----------------------|---------------------|
-----------------------|---------------------|
-----------------------|---------------------|
-----------------------|---------------------|


  
-----1--1-----1--------|--5--------6----5----|--3--1--3--|
--3--------3-----------|---------------------|-----------|
-----------------------|---------------------|-----------|
-----------------------|---------------------|-----------|
-----------------------|---------------------|-----------|
-----------------------|---------------------|-----------|


  
-----1--1-----1--------|--6------5-----------|
--3--------3-----------|---------------------|
-----------------------|---------------------|
-----------------------|---------------------|
-----------------------|---------------------|
-----------------------|---------------------|


   
-----1--1-----1--------|--8--6----5-----------|
--3--------3-----------|----------------------|
-----------------------|----------------------|
-----------------------|----------------------|
-----------------------|----------------------|
-----------------------|----------------------|


          
-----1--1-----1--------|--5--------6----5----|--3--1--3--|
--3--------3-----------|---------------------|-----------|
-----------------------|---------------------|-----------|
-----------------------|---------------------|-----------|
-----------------------|---------------------|-----------|
-----------------------|---------------------|-----------|
Suggest correction
Give kudos to tab author, rate the tab!
1 2 3 4 5
comments
print report bad tab
guest
You may want to rate the tab now too:
select rating
Wanna post a correction for this tab? Suggest correction