Oops, an error
Loading. Please wait.

Stay Awhile Acoustic Tab

718 views 1 this week
no commentswrite comment
1 2 3 4 5
please rate
add to favorites
launch autoscroll
font size
0
reset
how to read this tab
guitar tuner
Autoscroll
slow
fast
+/-
esc
set tempo
stop
Help us to improve Ultimate-Guitar.com Take our survey!
×
Author
Difficulty
novice
Artist : Belle Histoire
Song   : "Stay Awhile"

Tuning : EADGBe (StAnDaRd)
Capo   : Nope

Tabbed By : Chester Abellera (^-^)




Intro
e|--0----0----0----0--|
B|--0----0----0----0--|
G|--1----2----6----4--| x1
D|--2----2----6----4--| 
A|--2----0----4----2--|
E|--0-----------------|


Verse 1
e|--0----0----0----0--|     |--0----0----0----0-------|
B|--0----0----0----0--|     |--0----0----0----0-------|
G|--1----2----6----4--|     |--1----2----6----4-------|
D|--2----2----6----4--|     |--2----2----6----4-------|
A|--2----0----4----2--|     |--2----0----4----2-------|
E|--0-----------------|     |--0----------------------|


Chorus
e|--0----0----0----0--|
B|--0----0----0----0--|
G|--6----1----6----4--| x2
D|--7----2----6----4--| 
A|--7----2----4----2--|
E|--5----0------------|


Back to Intro
e|--0----0----0----0--|
B|--0----0----0----0--|
G|--1----2----6----4--| x1
D|--2----2----6----4--| 
A|--2----0----4----2--|
E|--0-----------------|


Verse 2
e|--0----0----0----0--|     |--0----0----0----0-------|
B|--0----0----0----0--|     |--0----0----0----0-------|
G|--1----2----6----4--|     |--1----2----6----4-------|
D|--2----2----6----4--|     |--2----2----6----4-------|
A|--2----0----4----2--|     |--2----0----4----2-------|
E|--0-----------------|     |--0----------------------|


Chorus
e|--0----0----0----0--|
B|--0----0----0----0--|
G|--6----1----6----4--| x2
D|--7----2----6----4--| 
A|--7----2----4----2--|
E|--5----0------------|


Bridge/Breakdown
e|--0----0----0----0--|          e|--0----0----0----0----0--|
B|--0----0----0----0--|    x3    B|--0----0----0----0----0--|
G|--6----8----6----8--|   then   G|--6----8----6----8----8--|
D|--7----9----7----9--|    ->    D|--7----9----7----9----9--|
A|--7----9----7----9--|          A|--7----9----7----9----9--|
E|--5----7----5----7--|          E|--5----7----5----7----7--|


Chorus
e|--0----0----0----0--|
B|--0----0----0----0--|
G|--6----1----6----4--| x4
D|--7----2----6----4--| 
A|--7----2----4----2--|
E|--5----0------------|


Outro
e|--0----0----0----0--|
B|--0----0----0----0--|
G|--1----2----6----4--| x1
D|--2----2----6----4--| 
A|--2----0----4----2--|
E|--0-----------------|



End on E =)








Lyrics :
Nice to meet you,
I waited for so long,
To find someone I could count on till the end.

I’ve searched for ages,
oh I’ve seen, so many faces,
but until yours I just had to play pretend.

(Chorus)
Don’t you wanna stay,
You are such a ray of sunshine,
When I see you, never wanna look away.

And the vision’s so much clearer,
When you started walking near me and I smile and I ask,
if you’d like to stay awhile.

You you’re perfect,
Oh the wait was worth it,
I couldn’t ask for a better man.

I want to love you,
And take love from you,
I know we’ll be together in the end.

(Chorus 2x)

Say you will, say you will,
Be mine, be mine.
Stay with me, stay with me,
Valentine, Valentine.
Say you will, say you will,
Be mine, be mine.
Stay with me, stay with me,
Valentine, Valentine.

(Chorus 2x)

Stay awhile.
Suggest correction
Give kudos to tab author, rate the tab!
1 2 3 4 5
comments
print report bad tab
guest
You may want to rate the tab now too:
select rating
Please do not post tabs as comments. Select "correction" instead!