Oops, an error
Loading. Please wait.

Dream On Me chords

by Belly
67 views 1 this week
no commentswrite comment
1 2 3 4 5
3 more votes to show rating
add to favorites
×
Save as Personal and add changes to this tab that will be seen only by you. Learn more ›
×
You can save this tab as Personal to edit and correct it or add notes. All changes will be seen only by you. Learn more »
launch autoscroll
font size
0
reset
transpose
0
reset
display chords
guitar tuner
edit
Autoscroll
slow
fast
+/-
esc
set tempo
stop
Author
Difficulty
Strumming
There is no strumming pattern for this song yet. and get +5 IQ
These are simple cords and a basic 
back and forth for the most part. 
I wrote the chords as I believe them
to be, but if you want a little
more variation on the fret board
this first part is an example of an 
alternative that also works well on the verses.

[Example]-----------------
Am     C      Em
Her obituary,
           G
You stole enough from me.
        Am   C
I gotta go.
        Am      C    Am
I gotta go home now
---------------------------

[Intro]

Am, C, Am, C, 


[Verse 1]

Am     C      Am
Her obituary,
           C
You stole enough from me.
        Am   C
I gotta go.
        Am      C    Am
I gotta go home now
        C      Am
In this misery.
           C
You've had enough of me.
        Am   C
I gotta go.
        Am      C    Am  C
I gotta go home now
              Am   C
Where there's easy love,
            Am   C    Am    G
And there's easy life.


[Chorus]

         C
Dream on me
       G
When you sleep.
          Am
Keep your head
          C             G
Where you said it would be.
         C
Dream on me
       G
When you sleep.
          Am   C        G
Keep your head like you said.


[Guitar Solo strumming or Picking]

C  Am  Em  G  Am

e|------------------------8--7--5--3--0--3--5--3--7/8------------------------|
B|------------------------------------------------7/8------------------------|
G|------0--4-----------------------------------------------------------------|
D|---2--------2------6/7-----------------------------------------------------|
A|---------------3-----------------------------------------------------------|
E|---------------------------------------------------------------------------|

e|---8--7--5--3--0--3--8--7--5--3--8--3--0--5--8--10--8----------------------|
B|------------------------------------------5--8--10--8----------------------|
G|---------------------------------------------------------------------------|
D|---------------------------------------------------------------------------|
A|---------------------------------------------------------------------------|
E|----------------------------------------------------------3--0--0----------|


[Verse 2]

 Am     C      Am
Her obituary,
           C
You stole enough from me.
        Am   C
I gotta go.
        Am      C    Am
I gotta go home now
        C      Am
In this misery.
           C
I've had enough of me.
        Am   C
I gotta go.
        Am      C    Am  C
I gotta go home now
              Am   C
Where there's easy love,
            Am   C    Am    G
And there's easy life.

         
[Chorus]

         C
Dream on me
       G
When you sleep.
          Am
Keep your head
          C             G
Where you said it would be.
         C
Dream on me
       G
When you sleep.
          Am   C        G
Keep your head like you said,
        C              Am             C     G Am C Em G
And you said, like you said, like you said.
         C  Am
Dream on me 
         C  Am
Dream on me
         C  Am G Am
Dream on me

Suggest correction
Creating personal tab
Creating personal tab
You can edit any tab online and save it as your Personal.

You can edit, replace or remove any tab part or add personal notes – all changes will be seen only by you.

Personal tabs can be accessed anytime from any device, even offline.
Learn more »
Give kudos to tab author, rate the tab!
1 2 3 4 5
comments
print report bad tab
guest
You may want to rate the tab now too:
select rating
Wanna post a correction for this tab? Suggest correction