Oops, an error
Loading. Please wait.

Feed The Tree chords

version 2
version 2

Whole song

by Belly
694 views 15 this week
no commentswrite comment
1 2 3 4 5
x 3
add to favorites
×
Save as Personal and add changes to this tab that will be seen only by you. Learn more ›
×
You can save this tab as Personal to edit and correct it or add notes. All changes will be seen only by you. Learn more »
launch autoscroll
font size
0
reset
transpose
0
reset
simplify chords
display chords
guitar tuner
edit
Autoscroll
slow
fast
+/-
esc
set tempo
stop
Author
Difficulty
Strumming
There is no strumming pattern for this song yet. and get +5 IQ
[Intro riff]

e|----------------------------|--------------------------------|
B|----------------------------|--------------------------------|
G|----0--0--0--0--0--0--0--0  |--------------------------------|x3
D|----2--2--2--2--2--2--2--2--|-2-----0-----2--0--0--0--0------|
A|----2--2--2--2--2--2--2--2--|-3-----2-----0--2--2--2--0------|
E|----0--0--0--0--0--0--0--0 -|--------------------------------|


[Verse]

G    
This old man I've talked about
C9                                               G      C9      G    
Broke his own heart,Poured it in the ground.
G    
Big red tree grew up and out,
       C9                                  G         C9        G    
Throws up it's leaves, Spins round and round.
A                       C9    
I know all this and more.


[Chorus]

             G    
So take your hat off, When you're talking to me
    C9                                 G      C9      G    
And be there when I feed the tree.


[Verse]

G    
This little squirrel I used to be
            C9                                G      C9      G    
Slammed her bike down the stairs.
G    
They put silver where her teeth had been.
     C9                             G         C9      G    
Baby silvertooth, she grins and grins.
A                       C9    
I know all this and more.


[Chorus]

             G    
So take your hat off, When you're talking to me
    C9                                  G            C9           
And be there when I feed the tree.
             G    
So take your hat off boy, When you're talking to me
    C9                                 G            C9          
And be there when I feed the tree.


[Solo Harmony]

G      C9       G       C9    


[Riff]

e|----------------------------|--------------------------------|
B|----------------------------|--------------------------------|
G|----0--0--0--0--0--0--0--0  |--------------------------------|x2
D|----2--2--2--2--2--2--2--2--|-2-----0-----2--0--0--0--0------|
A|----2--2--2--2--2--2--2--2--|-3-----2-----0--2--2--2--0------|
E|----0--0--0--0--0--0--0--0 -|--------------------------------|


[Verse]

G    
This old man I used to be
       C9                                 G      C9      G    
Spins around, around, around the tree.
G    
Silver baby come to me.
      C9                     G          C9      G    
I'll only hurt you in my dreams.
A    
I know all this and..., 
A    
I know all this and...
A                       C9    
I know all this and more.


[Chorus]

             G    
So take your hat off boy, When you're talking to me
    C9                                  G            C9             
And be there when I feed the tree.
             G    
So take your hat off boy, When you're talking to me
    C9                                  G            C9             G      
And be there when I feed the tree.

    
[Outro]

e|----------------------------|--------------------------------|
B|----------------------------|--------------------------------|
G|----0--0--0--0--0--0--0--0  |--------------------------------|x2
D|----2--2--2--2--2--2--2--2--|-2-----0-----2--0--0--0--0------|
A|----2--2--2--2--2--2--2--2--|-3-----2-----0--2--2--2--0------|
E|----0--0--0--0--0--0--0--0 -|--------------------------------|

e|----------------------------|----------------3--3--3--3------|
B|----------------------------|----------------0--0--0--0------|
G|----0--0--0--0--0--0--0--0  |----------------0--0--0--0------|
D|----2--2--2--2--2--2--2--2--|-2-----0-----x--0--0--0--0------|
A|----2--2--2--2--2--2--2--2--|-3-----2-----x--2--2--2--2------|
E|----0--0--0--0--0--0--0--0 -|----------------3--3--3--3------|

            
            
Suggest correction
Creating personal tab
Creating personal tab
You can edit any tab online and save it as your Personal.

You can edit, replace or remove any tab part or add personal notes – all changes will be seen only by you.

Personal tabs can be accessed anytime from any device, even offline.
Learn more »
Give kudos to tab author, rate the tab!
1 2 3 4 5
comments
print report bad tab
guest
You may want to rate the tab now too:
select rating
Wanna post a correction for this tab? Suggest correction