Oops, an error
Loading. Please wait.

Death To Traitors Bass Tab

version 2
version 2

Whole song

Interactive

274 views 1 this week
no commentswrite comment
1 2 3 4 5
please rate
add to favorites
launch autoscroll
font size
0
reset
guitar tuner
Autoscroll
slow
fast
+/-
esc
set tempo
stop
Help us to improve Ultimate-Guitar.com Take our survey!
×
Author
Difficulty
Tuning
novice
D A D G B E
#----------------------------------PLEASE NOTE---------------------------------#
#This file is the author's own work and represents their interpretation of the #
#song. You may only use this file for private study, scholarship, or research. #
#------------------------------------------------------------------------------#

DEATH TO TRAITORS (Bassline)
As recorded by Beloved
(From the 2003 Album FAILURE ON)

Transcribed by Jonathan Rose
	

Words and Music by Beloved
Arranged by Beloved

Gtr I (D A D G) - 'Bass'

 Intro
  Dancefight Q=182
 4/4
  Gtr I
  Wx4
|--------||
|--------||
|--------||
|--------||


   "A line drawn in the.."
    E E E E E E E E   E E E E E E E E   E E E E E E E E   E E E E E E E E   4x
||------------------|-----------------|-----------------|-------------------||
||o-----------------|-----------------|-7-7-7-7-7-7-7-7-|------------------o||
||o-7-7-7-7-7-7-7-7-|-7-7-7-7-7-7-7-7-|-----------------|-5-5-5-5-5-5-5-5--o||
||------------------|-----------------|-----------------|-------------------||


   *Breakdown*
    Q  E q   Q.     Q  E q   Q.     Q  E q   Q.     Q  E E E E q    4x
||----------------|---------------|---------------|-----------------||
||o---------------|---------------|---------------|----------------o||
||o------5--/5\---|------5--/5\---|------5--/5\---|----------------o||
||--0--0----------|-0--0----------|-0--0----------|-0--0-x-0-0-0----||


   "A firm foundation of.."
    Q.   Q.   Q    Q.   Q.   Q    Q.   Q.   Q    Q.   Q.   Q
||---------------|--------------|--------------|---------------|
||o--------------|--------------|--------------|---------------|
||o-5----5----5--|-5----5----5--|-1----1----1--|-1----1----1---|
||---------------|--------------|--------------|---------------|


  Q.   Q.   Q    Q.   Q.   Q    Q.   Q.   Q    Q.   Q.   Q   4x
|--------------|--------------|--------------|---------------||
|--------------|--------------|--------------|--------------o||
|-3----3----3--|-3----3----3--|--------------|--------------o||
|--------------|--------------|-3----3----3--|-2----2----2---||


   "We fight fire with fire.."
    Punch & Kick Q=162
    E. E. E. S E Q    +E  E E E S S E E E
||------------------|---------------------|
||o-----------------|---------------------|
||o-----------------|---------------------|
||--4--4--4----4-6--|-(6)-4-4---4-4-4-4-4-|


  E. E. E. S E Q    +E  E E E E. E. E
|-----------------|--------------------|
|-----------------|--------------------|
|-----------------|--------------------|
|-4--4--4----4-6--|-(6)-4-4---3--3--3--|


  1.
  H    E E Q    +E  E E E S S E E E   E. E. E. S E Q    +E  E E E S S E E E
|-------------|---------------------|-----------------|----------------------||
|-------------|---------------------|-----------------|---------------------o||
|-------------|---------------------|-----------------|---------------------o||
|--------4-6--|-(6)-4-4---4-4-4-4-4-|-4--4--4----4-6--|-(6)-4-4---3-3-3-3-3--||


  2.
  H    E E Q    +E  E E E S S E E E   E. E. E. S E Q    +E  E E E E E E E
|-------------|---------------------|-----------------|-------------------||
|-------------|---------------------|-----------------|-------------------||
|-------------|---------------------|-----------------|-------------------||
|--------4-6--|-(6)-4-4---4-4-4-4-4-|-4--4--4----4-6--|-(6)-4-4---3-3-3-3-||


 Bridge
  Original Tempo Q=182
 2/4
  Wx2
|--------||
|--------||
|--------||
|--------||


   "We drew a line in the.."
   4/4
    E E E E E E E E   E E E E E E E E   E E E E E E E E   E E E E E E E E   4x
||------------------|-----------------|-----------------|-------------------||
||o-----------------|-----------------|-----------------|------------------o||
||o-5-5-5-5-5-5-5-5-|-3-3-3-3-3-3-3-3-|-----------------|---------1-1-3-3--o||
||------------------|-----------------|-3-3-3-3-3-3-3-3-|-3-3-3-3-----------||


   "Go ahead.."
    E Q  E Q  E +E     E Q  E Q  E +E     E Q  E Q  E +E     E Q  E E E E E   4x
||-------------------|------------------|------------------|------------------||
||o------------------|------------------|------------------|-----------------o||
||o-5-5--5-5--5-(5)\-|-3-3--3-3--3-(3)\-|------------------|--------1-1-3-3--o||
||-------------------|------------------|-3-3--3-3--3-(3)\-|-3-3--3-----------||


 Interlude
  W          +W           +W           +W
|----------|------------|------------|--------||
|----------|------------|------------|--------||
|----------|------------|------------|--------||
|-0--------|-(0)--------|-(0)--------|-(0)----||


   "You will fight this battle.."
    Q.   S S E E E E   Q.   S S E E E E
||-------------------|------------------|
||o------------------|------------------|
||o------------8-8-8-|------------8-8-8-|
||--0----0-0-0-------|-0----0-0-0-------|


  Q.   S S E E E E    E  +Q    S S E S S Q   4x
|------------------|-------------------------||
|------------------|------------------------o||
|------------8-8-8-|------------------------o||
|-8----8-8-8-------|-10-(10)\--5-5-5-7-7-7---||


   *Breakdown*
    S S E H    S S E   S S E H.        S S E H    S S E   S S E E E Q  Q
||-------------------|---------------|------------------|--------------------||
||o------------------|---------------|------------------|-------------------o||
||o------------------|---------------|------------------|-------------------o||
||--0-0-0------0-0-0-|-0-0-0---------|-0-0-0------0-0-0-|-0-0-0---0-7--7-----||


   "This time it's now or.."
    E E E E E E E E   E E E E E E E E   E E E E E E E E   E E E E E E E E
||------------------|-----------------|-----------------|-------------------||
||o-----------------|-----------------|-----------------|------------------o||
||o-5-5-5-5-5-5-5-5-|-3-3-3-3-3-3-3-3-|-----------------|---------1-1-3-3--o||
||------------------|-----------------|-3-3-3-3-3-3-3-3-|-3-3-3-3-----------||


   "We can't stop.."
    E Q  E Q  E +E     E Q  E Q  E +E     E Q  E E Q  E   E Q  E E E E E
||-------------------|------------------|---------------|------------------||
||o------------------|------------------|---------------|-----------------o||
||o-5-5--5-5--5-(5)\-|-3-3--3-3--3-(3)\-|---------------|-----------------o||
||-------------------|------------------|-3-3--3-3-3--3-|-3-3--3-3-3-3-3---||


 "We were born for battle.."  *Epic Breakdown*
  E E H.        H     H        E E Q.   S S E E   S S E Q  Q  Q
|-------------|-------------||------------------|------------------|
|-------------|-------------||------------------|------------------|
|-------------|-------------||------------------|------------------|
|-0-0---------|------12\----||-0-0------0-0-0---|-0-0-0----7--7----|


  E E Q.   S S E E   S S E H.        E E Q.   S S E E   S S E Q  E E E E
|------------------|---------------|------------------|------------------|
|------------------|---------------|------------------|------------------|
|------------------|---------------|------------------|------------------|
|-0-0------0-0-0---|-0-0-0---------|-0-0------0-0-0---|-0-0-0----7-7-7-7-|


  E E Q.   S S E E   S S E H.        E E Q.   S S E E   S S E Q  Q  Q
|------------------|---------------|------------------|----------------|
|------------------|---------------|------------------|----------------|
|------------------|---------------|------------------|----------------|
|-0-0------0-0-0---|-0-0-0---------|-0-0------0-0-0---|-0-0-0----7--7--|


  E E Q.   S S E E   S S E H.        E E Q.   S S E E   S S E Q  E E E E
|------------------|---------------|------------------|------------------|
|------------------|---------------|------------------|------------------|
|------------------|---------------|------------------|------------------|
|-0-0------0-0-0---|-0-0-0---------|-0-0------0-0-0---|-0-0-0----7-7-7-7-|


  E E E E E E E E   E E E E E E E E   Q.   S S E Q.
|-----------------|-----------------|-----------------||
|-----------------|-----------------|-----------------||
|-----------------|-----------------|-----------------||
|---7-7-7-7---7-7-|-7-7---7-7-7-7---|-0----0-0-0------||


   "The places so close.."
   3/4
    Q  E Q  E   Q  E Q  E   Q  E Q  E   E E E E E E
||------------|-----------|-----------|-------------|
||o-----------|-----------|-----------|-------------|
||o-----------|-----------|-----------|-------------|
||--8--8-8--8-|-0--0-0--0-|-0--0-0--0-|-0-0-0-0-0-0-|


   Q   E  Q   E    Q   E  Q   E   Q  E Q  E   E E E E E E  4x
|---------------|---------------|-----------|--------------||
|---------------|---------------|-----------|-------------o||
|---------------|---------------|-----------|-------------o||
|-10--10-10--10-|-10--10-10--10-|-0--0-0--0-|-0-0-0-0-0-0--||


 Outro
  H.        +H.        +H.        +H     +Q
|---------|----------|----------|--------------|
|---------|----------|----------|--------------|
|---------|----------|----------|--------------|
|-8-------|-(8)------|-(8)------|-(8)----(8)S==|


   H.         +H.         +H.         +H.
|----------|-----------|-----------|---------*|
|----------|-----------|-----------|---------*|
|----------|-----------|-----------|---------*|
|-10-------|-(10)------|-(10)------|-(10)----*|



Duration Legend
---------------
W - whole; H - half; Q - quarter; E - 8th; S - 16th; T - 32nd; X - 64th; a - acciaccatura
+ - note tied to previous; . - note dotted; .. - note double dotted
Uncapitalized letters represent notes that are staccato (1/2 duration)
Irregular groupings are notated above the duration line
Duration letters will always appear directly above the note/fret number it represents the
duration for.  Duration letters with no fret number below them represent rests.  Multi-
bar rests are notated in the form Wxn, where n is the number of bars to rest for.  Low
melody durations appear below the staff

Tablature Legend
----------------
 h   - hammer-on
 p   - pull-off
 b   - bend
 pb  - pre-bend
 r   - bend release (if no number after the r, then release immediately)
 /\  - slide into or out of (from/to "nowhere")
 s   - legato slide
 S   - shift slide
 - natural harmonic
[n]  - artificial harmonic
n(n) - tapped harmonic
 ~   - vibrato
 tr  - trill
 T   - tap
 TP  - trem. picking
 PM  - palm muting
\n/  - tremolo bar dip; n = amount to dip
 \n  - tremolo bar down
 n/  - tremolo bar up
/n\  - tremolo bar inverted dip
 =   - hold bend; also acts as connecting device for hammers/pulls
 <> - volume swell (louder/softer)
 x   - on rhythm slash represents muted slash
 o   - on rhythm slash represents single note slash

Misc Legend
-----------
 |  - bar
||  - double bar
||o - repeat start
o|| - repeat end
*|  - double bar (ending)
 :  - bar (freetime)
 $  - Segno
 &  - Coda
Tempo markers -  = BPM(8/16=s8/s16), where s8 = swing 8ths, s16 = swing 16ths


** Generated using Power Tab Editor by Brad Larsen: The Official Power Tab Web Site
Suggest correction
Give kudos to tab author, rate the tab!
1 2 3 4 5
comments
print report bad tab
guest
You may want to rate the tab now too:
select rating
Wanna post a correction for this tab? Suggest correction