Oops, an error
Loading. Please wait.

Into Your Arms Tab

362 views 1 this week
no commentswrite comment
1 2 3 4 5
3 more votes to show rating
add to favorites
launch autoscroll
font size
0
reset
how to read this tab
guitar tuner
Autoscroll
slow
fast
+/-
esc
set tempo
stop
Help us to improve Ultimate-Guitar.com Take our survey!
×
Into Your Arms 
By: Beloved

well, this is my first tab, it sounds right though.

tuning- Drop 'D'


INTRO/VERSE: (the guitar part is played behind the bass and drums)

e]--------   (in the song, i'm not sure if it's palm muted, but
B]-3-3--3-    it sounds pretty good either way)
G]--2-2---   
D]---0-0--   
A]--------   _it's repeated about 16 times until the chorus
D]--------   
 

CHORUS:

e]---------------------------------    ---
B]---------------------------------    ---
G]-777-999-111111----121212-999-777    -7-
D]-777-999-111111----121212-999-777 4x -7-
A]-555-777-9_9_9-----101010-777-555    -5-
D]---------------------------------    ---
             "it's gettin hard.."  

VERSE:

e]-----------------     
B]-----------------     
G]-777-999-111111-7     then, the chorus part is played in the 2nd
D]-777-999-111111-7 4x    part of the verse 2x
A]-555-777-9_9_9--5     
D]-----------------    
                    "do you remember November 22nd..."


BRIDGE:

e]--------------------------------              ------------------
B]--------------------------------              ------------------
G]--------------------------------       then   -7777777999121212-
D]-9-9-9-9-9-9-9-9-5-5-5-5-5-5-5-5  4x          -7777777999121212-
A]-9-9-9-9-9-9-9-9-5-5-5-5-5-5-5-5              -5555555777101010-
D]-9-9-9-9-9-9-9-9-5-5-5-5-5-5-5-5              ------------------
       "there's no day like today.."

then..
Guitar 1                              Guitar 2
e]--------------------------------    --------32----  
B]--------------------------------    -3-3-3-----3-3
G]--------------------------------    --2-2--2--2-2-
D]-9-9-9-9-9-9-9-9-5-5-5-5-5-5-5-5    --------------     
A]-9-9-9-9-9-9-9-9-5-5-5-5-5-5-5-5    --------------
D]-9-9-9-9-9-9-9-9-5-5-5-5-5-5-5-5    --------------

e]--------------------------------             ----------------------------
B]--------------------------------             ----------------------------
G]-------------------------------- 3x          ----------------------------
D]--------------------------------             ----------------------------
A]--------------------------------             ---0000---0000---5555---5555
D]-00-0000-00-0000-55-5555-55-5555             -000000000000005555555555555
 
  ---------                       ^this part is really wierd^^^^^^^^
  ---------                    but i think it goes kinda like that, 
  ---------                    listen to the song to get it right
  -7-5454p0
  ---------
  ---------


CHORUS


          ---------
          ---------
          ---------
end with  -7-5454-0
          ---------
          ---------


tabbed by Alex.
Suggest correction
Give kudos to tab author, rate the tab!
1 2 3 4 5
comments
print report bad tab
guest
You may want to rate the tab now too:
select rating
Wanna post a correction for this tab? Suggest correction