Oops, an error
Loading. Please wait.

So Cold chords

version 4
version 4

Whole song

388 views 9 this week
no commentswrite comment
1 2 3 4 5
3 more votes to show rating
add to favorites
×
Save as Personal and add changes to this tab that will be seen only by you. Learn more ›
×
You can save this tab as Personal to edit and correct it or add notes. All changes will be seen only by you. Learn more »
launch autoscroll
font size
0
reset
transpose
0
reset
simplify chords
display chords
guitar tuner
edit
Autoscroll
slow
fast
+/-
esc
set tempo
stop
Strumming
There is no strumming pattern for this song yet. and get +5 IQ
There are 2 methods for picking the song. I will be tabbing the difficult, but nicer version for you :)
For the easier version, cycle through the Em, C, G, D chords with capo on 3 (Capo 4 is also nice for a
higher register). The pattern for the easier chords is just the D, G, B, e strings X4.
eg. Em Chord (D, G, B, e)X4; C Chord (D, G, B, e)X4; G Chord (D, G, B, e)X4; D Chord (D, G, B, e)X4. 

Standard Tuning
Capo 5

This gets repeated throughout the song: 
       Dm                                                 A#/F
e|-----------1-----------1-----------1-----------1--|-----------1-----------1-----------1-----------1--|
B|--------3-----------3-----------3-----------3-----|--------3-----------3-----------3-----------3-----|
G|-----2-----------2-----------2-----------2--------|-----3-----------3-----------3-----------3--------|
D|--0-----------0-----------0-----------0-----------|--3-----------3-----------3-----------3-----------|
A|--------------------------------------------------|--------------------------------------------------|
E|--------------------------------------------------|--------------------------------------------------|

       F                                                  C/E
e|-----------5-----------5-----------5-----------5--|-----------3-----------3-----------3-----------3--|
B|--------6-----------6-----------6-----------6-----|--------5-----------5-----------5-----------5-----|
G|-----5-----------5-----------5-----------5--------|-----5-----------5-----------5-----------5--------|
D|--3-----------3-----------3-----------3-----------|--2-----------2-----------2-----------2-----------|
A|--------------------------------------------------|--------------------------------------------------|
E|--------------------------------------------------|--------------------------------------------------|


[Verse]

Dm
Oh, you can't hear me cry
A#/F
See my dreams all die
F
From where you're standing
C/E
On your own.
Dm
It's so quiet here
A#/F
And I feel so cold
F
This house no longer
C/E
Feels like home.


[Chorus]

Dm           A#/F
(Ooooooohhhhh mmmmhhhhhhh...)
F            C/E
(Ooooooohhhhh mmmmhhhhhhh...)


[Verse]

Dm
Oh, when you told me you'd leave
A#/F
I felt like I couldn't breathe
F             C/E
My aching body fell to the floor
Dm
Then I called you at home
A#/F
You said that you weren't alone
F
I should've known better
C/E
Now it hurts much more.


[Chorus]

Dm           A#/F
(Ooooooohhhhh mmmmhhhhhhh...)
F            C/E
(Ooooooohhhhh mmmmhhhhhhh...)


[Verse]

Dm
You caused my heart to bleed and
A#/F
You still owe me a reason
F                        C/E
'Cause I can't figure out why...
Dm
Why I'm alone and freezing
A#/F
While you're in the bed that she's in
F                         C/E
And I'm just left alone to cry


[Chorus]

Dm             A#/F           F                      C/E
(Oh woah oh oh, oh whoa oh oh, yeah, yeah, yeah yeah, yeah, yeah...) [x4]


[Bridge]

Dm
You caused my heart to bleed and
A#/F
You still owe me a reason
F                        C/E
'Cause I can't figure out why...


[Verse]

Dm
Oh, you can't hear me cry
A#/F
See my dreams all die
F
From where you're standing
C/E
On your own.
Dm
It's so quiet here
A#/F
And I feel so cold
F
This house no longer
C/E
Feels like home.


[Bridge]

Dm
You caused my heart to bleed and
A#/F
You still owe me a reason
F                        C/E
'Cause I can't figure out why...


[Verse]

Dm
Oh, you can't hear me cry
A#/F
See my dreams all die
F
From where you're standing
C/E
On your own.
Dm
It's so quiet here
A#/F
And I feel so cold
F
This house no longer
C/E
Feels like home.
Suggest correction
Creating personal tab
Creating personal tab
You can edit any tab online and save it as your Personal.

You can edit, replace or remove any tab part or add personal notes – all changes will be seen only by you.

Personal tabs can be accessed anytime from any device, even offline.
Learn more »
Give kudos to tab author, rate the tab!
1 2 3 4 5
comments
print report bad tab
guest
You may want to rate the tab now too:
select rating
Wanna post a correction for this tab? Suggest correction