Oops, an error
Loading. Please wait.

Dance With Me bass

127 views 12 this week
no commentswrite comment
1 2 3 4 5
3 more votes to show rating
add to favorites
×
Save as Personal and add changes to this tab that will be seen only by you. Learn more ›
×
You can save this tab as Personal to edit and correct it or add notes. All changes will be seen only by you. Learn more »
launch autoscroll
font size
0
reset
guitar tuner
edit
Autoscroll
slow
fast
+/-
esc
set tempo
stop
Author
Difficulty
Dance With Me
Founded In 1953 this was the first chart single in the UK by The Drifters 
With Ben E King on lead vocals, the song peeked at number 17 in UK.
Tab by bass50611.  Great song that has that Doo Wop feel to it.
Comments at bass254@btinternet.com 

Intro:
G|-------------------------------------------------------------------------
D|-----10-7-----10-7------7---------7--------------------------------------
A|-8--8-----8--8-----5--5--8---5--5--8------8-5------8-5-----10-7-----7-10-
E|--------------------------------------6--6-----6--6----8--8-----8--8-----

Verse 1:
G|-------------------------------------------------------------------------
D|-----10-7-----10-7------7---------7--------------------------------------
A|-8--8-----8--8-----5--5--8---5--5--8------8-5------8-5-----10-7-----10-7-
E|--------------------------------------6--6-----6--6----8--8-----8--8-----

Verse 2: (Repeat Verse 1)

Middle 8:                                                (Break)
G|-----------------------------------------------------------
D|----------8--8----------10-7-----10-7----------8--8--------
A|-----8-5------8-5---8--8-----8--8----------8-5-----8-5-----
E|-6--6----------------------------------6--6--------------8-

Verse 3:                                                          (Break)
G|--------------------------------------------------------------------
D|-----10-7-----10-7------7---------7---------------------------------
A|-8--8-----8--8-----5--5--8---5--5--8------8-5------8-5-----10-7-----
E|--------------------------------------6--6-----6--6----8--8-------8-

Chorus 1:
G|-------------------------------------------------------------------------
D|-----10-7-----10-7------7---------7--------------------------------------
A|-8--8-----8--8-----5--5--8---5--5--8------8-5------8-5-----10-7-----10-7-
E|--------------------------------------6--6-----6--6----8--8-----8--8-----

Instrumental Interlude:
G|-------------------------------------------------------------------------
D|-----10-7-----10-7------7---------7---8--8-----8--8----------------------
A|-8--8-----8--8-----5--5--8---5--5--8------8-5------8-5-----10-7-----10-7-
E|-------------------------------------------------------8--8-----8--8-----

Chorus 2:                                                          (Break)
G|--------------------------------------------------------------------
D|-----10-7-----10-7------7---------7---------------------------------
A|-8--8-----8--8-----5--5--8---5--5--8------8-5------8-5-----10-7-----
E|--------------------------------------6--6-----6--6----8--8-------8-

Outro:                                                 (Repeat To Fade/End)
G|-------------------------------------------------------------------------
D|-----10-7-----10-7------7---------7--------------------------------------
A|-8--8-----8--8-----5--5--8---5--5--8------8-5------8-5-----10-7-----7-10-
E|--------------------------------------6--6-----6--6----8--8-----8--8-----


            
            
Suggest correction
Creating personal tab
Creating personal tab
You can edit any tab online and save it as your Personal.

You can edit, replace or remove any tab part or add personal notes – all changes will be seen only by you.

Personal tabs can be accessed anytime from any device, even offline.
Learn more »
Give kudos to tab author, rate the tab!
1 2 3 4 5
comments
print report bad tab
guest
You may want to rate the tab now too:
select rating
Wanna post a correction for this tab? Suggest correction