Oops, an error
Loading. Please wait.

Stand By Me Tab

version 1
version 1
940,091 views 1,677 this week
19 commentsread comments
1 2 3 4 5
x 260
add to favorites
launch autoscroll
font size
0
reset
how to read this tab
guitar tuner
Autoscroll
slow
fast
+/-
esc
set tempo
stop
Help us to improve Ultimate-Guitar.com Take our survey!
×
Tuning
E A D G B E
[intro]

e------------------------------------------------------------------------------|
B------------------------------------------------------------------------------|
G------------------------------------------------------------------------------|
D------------------------------------------------------------------------------|
A-5-5--0-4-5-5---0-4-5-5---5-4-2-2--0-2-2--2-0--------2-0-0--0-4-5-5---0-4-5-5-|
E----------------------------------------------3-3--3--------------------------|
tap^     tap^      tap^      tap^   tap^     tap^     tap^     tap^      tap^


[main melody]

e------------------------------------------------------------------------------|
B------------------------------------------------------------------------------|
G------------------------------------------------------------------------------|
D------------------------------------------------------------------------------| x2
A-0-4-5-5---0-4-5-5---5-4-2-2--0-2-2--2-0--------2-0-0--0-4-5-5---0-4-5-5------|
E-----------------------------------------3-3--3-------------------------------|
    tap^      tap^      tap^   tap^     tap^     tap^     tap^      tap^


i'll leave putting in the lyrics to you guys, listen to the song and you'll
figure it out

after 2nd verse, and the chorus the key changes


e-----------------------------------------------------------------------------|
B-----------------------------------------------------------------------------|
G-----------------------------------------------------------------------------|
D---1-2-2----1-2-2--------------------------------------1-2-2---1-2-2---------|
A-2--------2-------2-1-4-4--2-4-4--4-2--0-0--0-4-2-2--2-------2---------------|
E-----------------------------------------------------------------------------|
    tap^     tap^     tap^   tap^      tap^     tap^     tap^      tap^
Suggest correction
comments
print report bad tab
19 comments total. Showing first comments. show 1 bad comment
+5 reply
madnash 10 Feb 26, 2013 10:48 AM

love it! i can realy here it good job man

+2 reply
Glasskatten 10 Jun 13, 2013 04:36 PM

And just wrong. Wroooung.

guest
You may want to rate the tab now too:
select rating
Wanna post a correction for this tab? Suggest correction