Oops, an error
Loading. Please wait.

Stand By Me Tab

version 1
version 1
978,116 views 2,403 this week
19 commentsread comments
1 2 3 4 5
x 307
add to favorites
launch autoscroll
font size
0
reset
how to read this tab
guitar tuner
×
Best way to learn
"Stand By Me"
Autoscroll
slow
fast
+/-
esc
set tempo
stop
Tuning
E A D G B E
[intro]

e------------------------------------------------------------------------------|
B------------------------------------------------------------------------------|
G------------------------------------------------------------------------------|
D------------------------------------------------------------------------------|
A-5-5--0-4-5-5---0-4-5-5---5-4-2-2--0-2-2--2-0--------2-0-0--0-4-5-5---0-4-5-5-|
E----------------------------------------------3-3--3--------------------------|
tap^     tap^      tap^      tap^   tap^     tap^     tap^     tap^      tap^


[main melody]

e------------------------------------------------------------------------------|
B------------------------------------------------------------------------------|
G------------------------------------------------------------------------------|
D------------------------------------------------------------------------------| x2
A-0-4-5-5---0-4-5-5---5-4-2-2--0-2-2--2-0--------2-0-0--0-4-5-5---0-4-5-5------|
E-----------------------------------------3-3--3-------------------------------|
    tap^      tap^      tap^   tap^     tap^     tap^     tap^      tap^


i'll leave putting in the lyrics to you guys, listen to the song and you'll
figure it out

after 2nd verse, and the chorus the key changes


e-----------------------------------------------------------------------------|
B-----------------------------------------------------------------------------|
G-----------------------------------------------------------------------------|
D---1-2-2----1-2-2--2-1---------------------------------1-2-2----1-2-2---------|
A-2--------2-----------4-4--2-4-4--4-2--0-0--0-4-2-2--2--------2--------------|
E-----------------------------------------------------------------------------|
    tap^     tap^     tap^   tap^      tap^     tap^    tap^    tap^
Suggest correction
comments
print report bad tab
19 comments total. Showing first comments.
+5 reply
madnash 10 Feb 26, 2013 05:48 AM

love it! i can realy here it good job man

0 reply
micma039 10 Sep 07, 2013 03:41 AM

thx, nice job :)

-2 reply
GuitarJunior-01 10 Feb 02, 2014 01:07 PM

I have one as well. Reply if you think it's good or you have another:

1|---------------------------------------------------------------------------R|
2|---------------------------------------------------------------------------E|
3|---------------------------------------------------------------------------P|
4|-------------------------------------------------0-[Tap]-0--0-4-2-[Tap]-2--E|
5|------0-[Tap]-0----0-------------------------------------------------------A|
6|--0-4---------------4-2-[Tap]-2---0-2-[Tap]-2---0--------------------------T|
|------4x------|
Took awhile to type out...

guest
You may want to rate the tab now too:
select rating
Wanna post a correction for this tab? Suggest correction