Oops, an error
Loading. Please wait.
We have an official Stand By Me tab made by UG professional guitarists. Check out the tab »
×
70,175 views 207 this week
5 commentsread comments
1 2 3 4 5
x 247
add to favorites
×
Save as Personal and add changes to this tab that will be seen only by you. Learn more ›
×
You can save this tab as Personal to edit and correct it or add notes. All changes will be seen only by you. Learn more »
launch autoscroll
font size
0
reset
guitar tuner
backing track
0:00
0:00
edit
Autoscroll
slow
fast
+/-
esc
set tempo
stop
Author
-------------------------------------------------------------------------------
                             Stand By Me - Ben E King
-------------------------------------------------------------------------------

Tabbed By : Grant Fuller


The other tabs weren't right, so I thought since this is a classic bass line, I had to 
submit it. Much thanks to SiMplyMaE and mtowenby!

G|------------|------------|------------|------------|------------|
D|----6-7--7--|----6-7--7--|--7-6-------|------------|------------|
A|--7---------|--7---------|------9--9--|----7-9--9--|--9-7-5--5--|
E|------------|------------|------------|------------|------------|

G|------------|------------|------------|
D|------------|----6-7--7--|----6-7--7--|
A|--5-9-7--7--|--7---------|--7---------|
E|------------|------------|------------|

This repeats over and over, and that's the song!

Have Fun!

            
            
Suggest correction
Creating personal tab
Creating personal tab
You can edit any tab online and save it as your Personal.

You can edit, replace or remove any tab part or add personal notes – all changes will be seen only by you.

Personal tabs can be accessed anytime from any device, even offline.
Learn more »
comments
print report bad tab
5 comments total. Showing first comments.
-2 reply
mollylouiseduke 10 Oct 04, 2014 11:52 AM

This is good, but there should be two sevens on the D string at the beginning, then 7, 6, 7, 7, 7, 6, 9, 9. The second time, you play what you have (7, 6, 7, 7, 7, 6, 7, 7).

+1 reply
bass_player_41 10 Apr 11, 2016 05:42 PM

Awesome job. I started bass over spring break and needed a well formatted obvious set of a classic song and thats exactly what I got

0 reply
milomick 10 Sep 14, 2016 01:41 PM

Great Tabs which is an English midlands slang word meaning Ears,i'm liking this even though i've only played it for 10 minutes.

guest
You may want to rate the tab now too:
select rating
Wanna post a correction for this tab? Suggest correction